tablaturas, partituras y acordes para guitarra
Busca por banda/artista:
 
y/o título de la canción:
A B C D E F G H I J K L M N O P Q R S T U V W X Y Z 0 1 2 3 4 5 6 7 8 9 / Top 100 tabs
Categorías
Usuarios
usuario:
Darse de alta
password:
Artistas más visitados
Publicidad
TOP acordes y tablaturas de Misc soundtrack


Estás en: Inicio > Letra M > Acordes y tablaturas de Misc soundtrack > Mission impossible theme song
Mission impossible theme song
de Misc soundtrack
Puntúa este acorde/tab:      
(0.6/5)
Reportar este acorde/tab
  Añadir a tus favoritos
  Imprimir

E|------------------------------------------|
B|------------------------------------------|
G|------------------------------------------|
D|------------------------------------------|
A|--------0--1------------------------------|
E|--2--2--------2--2--0--1------------------|

E|------------------------------------------|
B|------------------------------------------|
G|------------------------------------------|
D|--5--2-----5--2-------5--2----------------|
A|--------2--------1----------0-----0--2----|
E|------------------------------------------|


		   
AcordesyTabs.com © 2008 Acordes y Tablaturas para guitarra. Tabs and Chords for guitar. Aviso Legal - Contacto
El uso de este sitio está sujeto a la aceptación de los términos y condiciones (22 usuarios online)