tablaturas, partituras y acordes para guitarra
Busca por banda/artista:
 
y/o título de la canción:
A B C D E F G H I J K L M N O P Q R S T U V W X Y Z 0 1 2 3 4 5 6 7 8 9 / Top 100 tabs
Categorías
Usuarios
usuario:
Darse de alta
password:
Artistas más visitados
Publicidad
TOP acordes y tablaturas de Chrono cross


Times scar
de Chrono cross
Puntúa este acorde/tab:      
(0.4/5)
Reportar este acorde/tab
  Añadir a tus favoritos
  Imprimir

 tuning: drop D
 
 tip: jus strum down, its easy as anything!

|-----------0----------------0------------|
|---------0---0---------------------------|
|-------0----------------0----------------|
|-----0----------------0------------------|
|---0----------------0--------------------|
|-0----------------0----------------------|
                repeat 3x

|-----------0----------------3------------|
|---------0---0---------------------------|
|-------0----------------0----------------|
|-----0----------------0------------------|
|---0----------------0--------------------|
|-0----------------0----------------------|


After that a violen comes and you cant do that with a guitar,
if you can email me!


		   
AcordesyTabs.com © 2008 Acordes y Tablaturas para guitarra. Tabs and Chords for guitar. Aviso Legal - Contacto
El uso de este sitio está sujeto a la aceptación de los términos y condiciones (33 usuarios online)