tablaturas, partituras y acordes para guitarra
Busca por banda/artista:
 
y/o título de la canción:
A B C D E F G H I J K L M N O P Q R S T U V W X Y Z 0 1 2 3 4 5 6 7 8 9 / Top 100 tabs
Categorías
Usuarios
usuario:
Darse de alta
password:
Artistas más visitados
Publicidad
TOP acordes y tablaturas de Megadeth


Estás en: Inicio > Letra M > Acordes y tablaturas de Megadeth > Silent scon
Silent scon
de Megadeth
Puntúa este acorde/tab:      
(0.3/5)
Reportar este acorde/tab
  Añadir a tus favoritos
  Imprimir

Silent scorn-megadeth
I can only remember the intro, if i 
had my guitar i would of remembered!
here it is:

Intro:
-------------------
-------------------
-------0-------0---
-----2---4---2---2-  2x
---2---------------
-0-----------------

------------------
------------------
-------0------0---
-----2---4--2---2-  2x
---3--------------
-0----------------

------------------------------------
------------------------------------
-------0------0----------0------0---
-----2---4--2---2------3------4---4-
---4-----------------1------2-------
-0-----------------0----------------

-----------------------------------
-----------------------------------
-------0------0----------0-------0-
-----2---4--2---2------2-------2---
---2-----------------4-------3-----
-0-----------------0-------0-------


there you go, no problem
i'll get back to it when ever 
i get to guitar and a computer
at the same time!
tabbed by: Rodney Kejick

		   
AcordesyTabs.com © 2008 Acordes y Tablaturas para guitarra. Tabs and Chords for guitar. Aviso Legal - Contacto
El uso de este sitio está sujeto a la aceptación de los términos y condiciones (25 usuarios online)