tablaturas, partituras y acordes para guitarra
Busca por banda/artista:
 
y/o título de la canción:
A B C D E F G H I J K L M N O P Q R S T U V W X Y Z 0 1 2 3 4 5 6 7 8 9 / Top 100 tabs
Categorías
Usuarios
usuario:
Darse de alta
password:
Artistas más visitados
Publicidad
TOP acordes y tablaturas de Melvins


Revolve
de Melvins
Puntúa este acorde/tab:      
(0.4/5)
Reportar este acorde/tab
  Añadir a tus favoritos
  Imprimir

From: Zium muizium@hotmail.com
Date: 09 Jan 2004 07:17 am
Subject: TAB: Corrected "Revolve" by the Melvins


Revolve         by the Melvins
                from the album "Stoner Witch"
                music by the Melvins
                tabbed by zium
 
Tuning DADGBE
 
INTRO
E -----------------------------------------------------------
B -----------------------------------------------------------
G --5h7-xx-7-7-7-7h8-xx-7h8-xx-7h8-xx-7h8--------------------
D --5h7-xx-7-7-7-7h8-xx-7h8-xx-7h8-xx-7h8--------------------
A --5---xx-5-5-5-5---xx-5---xx-5---xx-5----------------------
D -----------------------------------------------------------
 
VERSE
E -----------------------------------------------------------
B -----------------------------------------------------------
G -----------------------------------------------------------
D -----------------------------------------------------------
A -0--0-0--0--0-0---0-0--2-3--3-3-3--3-3-3p0-0-3h5-5-5-555555
D -0--0-0--0--0-0---0-0--2-3--3-3-3--3-3-3p0-0-3h5-5-5-555555
 
E ------------------------
B ------------------------
G ------------------------
D ------------------------
A -5-5---66666666-5-3-0---
D -5-5---66666666-5-3-0---
 
CHORUS
E ----------------------------------------------
B --5--5-5-5------------------------------------
G --5-x5-5-5------------------87--87----------
D --5-x5-5-5---3-3-3-3-3-3----87--87--xx------
A --3-x3-3-3---3-3-3-3-3-3----65--65--xx------
D -------------3-3-3-3-3-3-----------------3p0--
 
E ------------------------------------------------
B -------------------------5--5-5-5---------------
G ----87--87-------------5-x5-5-5---------------
D -xx-87--87-------------5-x5-5-5--3-3-3-3-3-3--
A -xx-65--65-------------3-x3-3-3--3-3-3-3-3-3--
D --------------3p0-3p0--------------3-3-3-3-3-3--
 
E -----------------------------------------------------------
B ----------------------------------------------------------- this part
G ----------------------------------------------------------- is END OF
D ----------------------------------------------------------- CHORUS
A --------6-6-5-5------3-------------------------------------
D -1-0-0----------6-6-----6-5-5-4-4-3-3-2-2-3p2-0------------
 
 
RIFF 1
E -----------------------------
B -----------------------------
G -----------------------------
D -----------------------------
A -2-2-2-2---2-2-2-2-----------
D -0-0-0-0---0-0-0-0--3^r-3^r--
 
RIFF 2
E ---------------------------
B ---------------------------
G --7-7-7-7-7--7-7-7-7/87---
D --7-7-7-7-7--7-7-7-7/87---
A --5-5-5-5-5--5-5-5-5/65---
D ---------------------------
 
RIFF 3
E -------------------------------
B -------------------------------
G --7--7--7-7-7-7--7-7-7---4-5---
D --7--7--7-7-7-7--7-7-7---4-5---
A --5--5--5-5-5-5--5-5-5---2-3---
D -------------------------------
 
BRIDGE
e|----------------------|
B|------------8---------|
G|-7--7-5-6-7---7-6---5-|
D|-7--7-------------7---|
A|----------------------|
D|----------------------| 

thingie before solo actually starts you can get the sound of the solo by removing the tone out of your guitar
G|-10h7~~|

this is what the solo is based on
work your own way around it
e|-------------------------------|
B|-14^-14^--14-12----------------|
G|----------------14-12-14-12----|
D|----------------------------14-|
A|-------------------------------|
D|-------------------------------|

then you get this:
G|-12^~~~~~12^~~~~~12^~~~~~12^~~~~~|

en then you get something that goes like this:
G|-14h17-14h17-14h17-14h17-12h13-|

and then you kinda work your way back to what got the solo started 
 
Songflow
INTRO 5x
VERSE 2x
VERSE 4x w/heavy PM
CHORUS
VERSE 4x w/heavy PM
CHORUS
RIFF 1 3x
RIFF 2 2x
RIFF 1 4x
RIFF 1 6x w/heavy PM
RIFF 3 3x
BRIDGE 20x
C G
END OF CHORUS 2x

		   
AcordesyTabs.com © 2008 Acordes y Tablaturas para guitarra. Tabs and Chords for guitar. Aviso Legal - Contacto
El uso de este sitio está sujeto a la aceptación de los términos y condiciones (22 usuarios online)