tablaturas, partituras y acordes para guitarra
Busca por banda/artista:
 
y/o título de la canción:
A B C D E F G H I J K L M N O P Q R S T U V W X Y Z 0 1 2 3 4 5 6 7 8 9 / Top 100 tabs
Categorías
Usuarios
usuario:
Darse de alta
password:
Artistas más visitados
Publicidad
TOP acordes y tablaturas de Melvins


Estás en: Inicio > Letra M > Acordes y tablaturas de Melvins > Dead dressed
Dead dressed
de Melvins
Puntúa este acorde/tab:      
(0.5/5)
Reportar este acorde/tab
  Añadir a tus favoritos
  Imprimir

Melvins - Dead Dressed

* harmonic
+ palm-mute

intro

D-11--11--12----------------------
A-11--11--12----------------------
D-11--11--12--12------------------
              *

D-11----------11----------11--11--12---------------------------
A-11----------11----------11--11--12---------------------------
D-11----------11----------11--11--12---------------------------
                                  *

D-11--11--12----------------------
A-11--11--12----------------------
D-11--11--12--12------------------
              *

D-11--11--11--0--3-----------------
A-11--11--11--0--3/-12-------------
D-11--11--11--0--3/-12-------------

2nd riff

D-11--11--11--11--11--11--11--9---11--11--11--10--11--11--11--12--11--11--11--11-
A-11--11--11--11--11--11--11--11--11--11--11--11--11--11--11--11--11--11--11--11-
D-11--11--11--11--11--11--11------11--11--11------11--11--11------11--11--11--11-
      +   +   +   +   +   +       +   +   +       +   +   +           +   +   +

A-12---12---12---
D-12---12---12--- play in 2 beats time

then repeat 2nd riff 3 times

3rd riff

D-0----1----4----3----11--12--11--12--11----11---7--7---10---10---10---
A-0----1----4----3----11--12--11--12--11----11---7--7---10---10---10---  play 4x
D-0----1----4----3----11--12--11--12--11----11---7--7---10---10---10---

4th riff

D----------------------------------------------------
A-2--3--2---4--5--4--2----2---14---2---14---2---14---  play 2x
D-2--3--2---4--5--4--2----2---14---2---14---2---14---
  +  +  +

riff 5

play riff 2 4x, then first part of riff 3
and then

D-11--11--12----------------------
A-11--11--12----------------------
D-11--11--12--12------------------
              *

		   
AcordesyTabs.com © 2008 Acordes y Tablaturas para guitarra. Tabs and Chords for guitar. Aviso Legal - Contacto
El uso de este sitio está sujeto a la aceptación de los términos y condiciones (31 usuarios online)