tablaturas, partituras y acordes para guitarra
Busca por banda/artista:
 
y/o título de la canción:
A B C D E F G H I J K L M N O P Q R S T U V W X Y Z 0 1 2 3 4 5 6 7 8 9 / Top 100 tabs
Categorías
Usuarios
usuario:
Darse de alta
password:
Artistas más visitados
Publicidad
TOP acordes y tablaturas de Melvins


Estás en: Inicio > Letra M > Acordes y tablaturas de Melvins > At a crawl
At a crawl
de Melvins
Puntúa este acorde/tab:      
(0.3/5)
Reportar este acorde/tab
  Añadir a tus favoritos
  Imprimir

Artist - Melvins
Song - At A Crawl
Album - Ozma
Tabbed By an18nin18

Standard Tuning - E, A, D, G, B, E

Intro

|--------|-------------------------------------------------------|
|--------|-------------------------------------------------------|
|--------|-------------------------------------------------------|
|--------|-2-2-----2-2-----2-2-----2-2-------------------------2-|
|-6~~-6^-|-0-0-1~~-0-0-1~~-0-0-1~~-0-0-1-------------------1~~-0-|
|--------|-------------------------------3-3^-<3><3><3><3>-------|
         | PM.     PM.     PM.     PM.
         | Play x 3

|-------------------------|------------------------------------------|
|-------------------------|------------------------------------------|
|-------------------------|------------------------------------------|
|-3-2-222-3-222-3-222-3-2-|-3-2-3-222-3-222-3-222-3-2-2--------------|
|-1-0-000-1-000-1-000-1-0-|-1-0-1-000-1-000-1-000-1-0-0--------------|
|-------------------------|-----------------------------<5><5><5><5>-|
      PM.   PM.   PM.     |       PM.   PM.   PM.
                          | Play x 2

|-------------------------------|
|-------------------------------|
|-------------------------------|
|-3-2-22-3-22-3-2-----3-2-2/5~~-|
|-1-0-00-1-00-1-0-5---1-0-------|
|-----------------3-------------|
      PM   PM

Verse

|-----------------------------------|-------------------------------|
|-----------------------------------|-------------------------------|
|-----------------------------------|-------------------------------|
|-----------------------------------|-------------------------------|
|-5-5-5-5-6-5-5-5-5-5-6-5-3---3-6-5-|-5-5-5-5-6-5-5-5-6-5-3---3-6-5-|
|-3-3-3-3-4-3-3-3-3-3-4-3-1---1-4-3-|-3-3-3-3-4-3-3-3-4-3-1---1-4-3-|
                                    |   PM...   PM...      
                                    | Play x 5
         1|    2,4|   3|        5|
|---------|-------|----|---------|
|---------|-------|----|---------|
|---------|-------|----|---------|
|-----5~~-|-------|----|---------|
|---------|-5-5-5-|----|---------|
|-3-3-----|-3-3-3-|-3^-|-x-x-x-x-|
  PM.       PM...

Outro
                            1|                      2|                 3|
|------------|---------------|-----------------------|------------------|
|------------|---------------|-----------------------|------------------|
|------------|---------------|--------------------4^-|-------------4-4^-|
|------------|-4~~-4-3-------|----------------4-4----|-4-4-4-3-4-5------|
|-3-3-33-4~~-|---------4-3-2-|-----------------------|------------------|
|-1-1-11-2~~-|---------------|-2-2-2-2^-2-x-x--------|------------------|
      PM     |
  Play x 3

|---------------------------|
|---------------------------|
|---------------------------|
|---------------------------|
|-4--------4--------4-6-3-4-|
|-2-<2><2>-2-<2><2>-2-4-1-2-|
 PM       PM
  Play x 3

And Thats it. 

If you have any comments on this tab or any others contact me at c.norman83@ntlworld.com.

		   
AcordesyTabs.com © 2008 Acordes y Tablaturas para guitarra. Tabs and Chords for guitar. Aviso Legal - Contacto
El uso de este sitio está sujeto a la aceptación de los términos y condiciones (33 usuarios online)