tablaturas, partituras y acordes para guitarra
Busca por banda/artista:
 
y/o título de la canción:
A B C D E F G H I J K L M N O P Q R S T U V W X Y Z 0 1 2 3 4 5 6 7 8 9 / Top 100 tabs
Categorías
Usuarios
usuario:
Darse de alta
password:
Artistas más visitados
Publicidad
TOP acordes y tablaturas de Adams bryan


Open road
de Adams bryan
Puntúa este acorde/tab:      
(0.2/5)
Reportar este acorde/tab
  Añadir a tus favoritos
  Imprimir

Hey Guys!
This is the first time I've tabbed a song, so be paient with me ;-)
Anyway I'm not quite sure but the Intro and Verses are played like this:
e:-----------------------------------------------------------
B:-----------------------------------------------------------
G:----7----5----2----0---0-0----7----5----2----0---0-0-------
D:----7----5----2----0---0-0----7----5----2----0---0-0-------
A:-----------------------------------------------------------
E:-----------------------------------------------------------

The Chorus is played like this:
e:------5--------------------5-------5------
B:--------6----5------5--------6---6--------
G:----------5----5--5---5--5-----5----------
D:------------------------------------------
A:------------------------------------------
E:------------------------------------------

Well that's that!
For any corrections (which their probably are) please send me a mail and chew me out ;-) dominic@softwhere-it.com

See ya guys!!!

		   
AcordesyTabs.com © 2008 Acordes y Tablaturas para guitarra. Tabs and Chords for guitar. Aviso Legal - Contacto
El uso de este sitio está sujeto a la aceptación de los términos y condiciones (37 usuarios online)