tablaturas, partituras y acordes para guitarra
Busca por banda/artista:
 
y/o título de la canción:
A B C D E F G H I J K L M N O P Q R S T U V W X Y Z 0 1 2 3 4 5 6 7 8 9 / Top 100 tabs
Categorías
Usuarios
usuario:
Darse de alta
password:
Artistas más visitados
Publicidad
TOP acordes y tablaturas de Pleymo


Estás en: Inicio > Letra P > Acordes y tablaturas de Pleymo > On ne changera rien
On ne changera rien
de Pleymo
Puntúa este acorde/tab:      
(0.8/5)
Reportar este acorde/tab
  Añadir a tus favoritos
  Imprimir

 
 Pleymo : On ne changera rien, tabbed by DarKBeN (darthben@wanadoo.fr)

 J'ai pass© pas mal de temps sur cette tab (jusqu'  3h30 du mat) 
 Si vous voulez la modifier ou la mettre autrepart, merci de laisser mon nom
 et de me pr©venir en me donnant votre avis dessus, §a me fera plaisir :o)

 J'esp¨re que cette tab vous plaiera, l'accordage est ©videmment (mi la r© sol si mi)
 et non en Drop D comme pleymo.


 / : Slide
 x : ©ttouff©

 Dans le cas x/ : Etouff© suivi rapidement par la note


 Intro
 |-----------------------------------------------------------|
 |-----------------------------------------------------------|
 |-----------------------------------------------------------|
 |-------------------------------------12-9------------------| ---|x2
 |----9-10------9-10-------9-10------9-----------------------|    
 |--7-------x/8-------x/10------x/10-------------------------|   
                                                                 
 |-----------------------------------------------------------|
 |-----------------------------------------------------------|
 |--9--------11-------12--------7----------------------------|
 |--9--------11-------12--------7----------------------------| ---|x2
 |--7--------9--------10--------5----------------------------|
 |-----------------------------------------------------------|
   (x7)     (x7)    (x7)       (x7)

 
 Couplet
 |-----------------------------------------------------------|
 |-----------------------------------------------------------|
 |-----------------------------------------------------------|
 |-----------------------------------------------------------|
 |----9-10------9-10-------9-10------9-10--------------------|    
 |--7-------x/8-------x/10------x/10-------------------------| 

 |-----------------------------------------------------------|
 |-----------------------------------------------------------|
 |-----------------------------------------------------------|
 |-------------------------------------12-9------------------| 
 |----9-10------9-10-------9-10------9-----------------------|    
 |--7-------x/8-------x/10------x/10-------------------------| 

 
 Suite couplet (apr¨s le coup de platine)

 Guitare 1 :
 |-----------------------------------------------------------|
 |-----------------------------------------------------------|
 |-----------------------------------------------------------|
 |-----9/7--9--------9/7--9-----12-12-12---10-9-7------------| 
 |--7------------7--------------------------------7----------|    
 |-----------------------------------------------------------| 

 |-----------------------------------------------------------|
 |-----------------------------------------------------------|
 |-----------------------------------------------------------|
 |-----9/7--9--------9/7--9-----12-12-12---10-9-7------------| 
 |--7------------7-------------------------------------------|    
 |-----------------------------------------------------------| 

 Guitare 2 :
 |-----------------------------------------------------------|
 |-----------------------------------------------------------|
 |-----------------------------------------------------------|
 |---9-------5------7------12---/---9-----5-----7------------| 
 |---9-------5------7------12---/---9-----5-----7------------|    
 |---7-------3------5------10---/---7-----3-----5------------| 
    (x7)    (x7)   (x7)   (x7)     (x7)  (x7)  (x5)

 
 Refrain
 |-----------------------------------------------------------|
 |-----------------------------------------------------------|
 |--9--------11-------12--------7----------------------------|
 |--9--------11-------12--------7----------------------------| ---|x2
 |--7--------9--------10--------5----------------------------|
 |-----------------------------------------------------------|
   (x7)     (x7)    (x7)       (x7)


 Couplet
 |-----------------------------------------------------------|
 |-----------------------------------------------------------|
 |-----------------------------------------------------------|
 |-----------------------------------------------------------|
 |----9-10------9-10-------9-10------9-10--------------------|    
 |--7-------x/8-------x/10------x/10-------------------------| 

 |-----------------------------------------------------------|
 |-----------------------------------------------------------|
 |-----------------------------------------------------------|
 |-------------------------------------12-9------------------| 
 |----9-10------9-10-------9-10------9-----------------------|    
 |--7-------x/8-------x/10------x/10-------------------------| 

 
 Suite couplet (apr¨s le coup de platine)

 Guitare 1 :
 |-----------------------------------------------------------|
 |-----------------------------------------------------------|
 |-----------------------------------------------------------|
 |-----9-7-9--------9-7-9---/--12-12-12---10-9-7------------| 
 |--7------------7--------------------------------7----------|    
 |-----------------------------------------------------------| 

 |-----------------------------------------------------------|
 |-----------------------------------------------------------|
 |-----------------------------------------------------------|
 |-----9/7--9--------9/7--9---/--12-12-12---10-9-7------------| 
 |--7------------7-------------------------------------------|    
 |-----------------------------------------------------------| 

 Guitare 2 :
 |-----------------------------------------------------------|
 |-----------------------------------------------------------|
 |-----------------------------------------------------------|
 |---9-------5------7------12---/---9-----5-----7------------| 
 |---9-------5------7------12---/---9-----5-----7------------|    
 |---7-------3------5------10---/---7-----3-----5------------| 
    (x7)    (x7)   (x7)   (x7)     (x7)  (x7)  (x5)

 
 Refrain

 Guitare 1 :
 |-----------------------------------------------------------|
 |-----------------------------------------------------------|
 |--9--------11-------12--------7----------------------------|
 |--9--------11-------12--------7----------------------------| ---|x2
 |--7--------9--------10--------5----------------------------|
 |-----------------------------------------------------------|
   (x7)     (x7)    (x7)       (x7)

 
 Guitare 2 : (pdt la reprise du refrain au d©but de la 3e fois)
 |-----------------------------------------------------------|
 |----8-7---7/12-8-7-----------------------------------------|
 |-----------------------------------------------------------|
 |-----------------------------------------------------------| 
 |--7--------------------------------------------------------|
 |-----------------------------------------------------------|

 Guitare 1 :
 |-----------------------------------------------------------|
 |-----------------------------------------------------------|
 |--9--------11-------12--------7----------------------------|
 |--9--------11-------12--------7----------------------------| ---|x2
 |--7--------9--------10--------5----------------------------|
 |-----------------------------------------------------------|
   (x7)     (x7)    (x7)       (x7)


 Pont
 |-----------------------------------------------------------|
 |-----5-5-5-5------7-7-7-7-------8-8-8-8----8-8-8-8---------|
 |----4-4-4-4------6-6-6-6-------7-7-7-7----7-7-7-7----------| 
 |-----------------------------------------------------------| 
 |---3-----/------5------/------7----------7-----------------|
 |-----------------------------------------------------------|

 
 La 2eme guitare commence :
 |--7/8-------7/8----------7/8-------7/8-------7/8------7/8----|
 |------8-5------8-5----------8-7-------8-7-------8--------8---|
 |-------------------------------------------------12-------12-|
 |-------------------------------------------------------------| 
 |-------------------------------------------------------------|
 |-------------------------------------------------------------|


 La 1ere guitare continue la mªme chose :
 |-----------------------------------------------------------|
 |-----5-5-5-5------7-7-7-7-------8-8-8-8-------8-8-8-8------|
 |----4-4-4-4------6-6-6-6-------7-7-7-7-------7-7-7-7-------| 
 |-----------------------------------------------------------| 
 |---3---------/--5---------/---7---------/---7--------------|
 |-----------------------------------------------------------|


 Refrain

 Guitare 1 :
 |-----------------------------------------------------------|
 |-----------------------------------------------------------|
 |--9--------11-------12--------7----------------------------|
 |--9--------11-------12--------7----------------------------| ---|x2
 |--7--------9--------10--------5----------------------------|
 |-----------------------------------------------------------|
   (x7)     (x7)    (x7)       (x7)

 
 Guitare 2 : (pdt la reprise du refrain au d©but de la 3e fois)
 |-----------------------------------------------------------|
 |----8-7---7/12-8-7-----------------------------------------|
 |-----------------------------------------------------------|
 |-----------------------------------------------------------| 
 |--7--------------------------------------------------------|
 |-----------------------------------------------------------|

 Guitare 1 :
 |-----------------------------------------------------------|
 |-----------------------------------------------------------|
 |--9--------11-------12--------7----------------------------|
 |--9--------11-------12--------7----------------------------| ---|x2
 |--7--------9--------10--------5----------------------------|
 |-----------------------------------------------------------|
   (x7)     (x7)    (x7)       (x7)


 La fin arrive :

 Guitare 1 :
 |-----------------------------------------------------------|
 |---4/12---4/11---4---2------4/12---11--14--11--------------|
 |-----------------------------------------------------------|
 |-----------------------------------------------------------| 
 |-----------------------------------------------------------|
 |-----------------------------------------------------------|

 |-----------------------------------------------------------|
 |---4/12---11--12--11---------------------------------------|
 |-----------------------------------------------------------|
 |-----------------------------------------------------------| 
 |-----------------------------------------------------------|
 |-----------------------------------------------------------|
 
 
 Guitare 2:
 |-----------------------------------------------------------|
 |-----------------------------------------------------------|
 |--x--------------------------------------------------------|
 |--x------2-----2------5------------------------------------| 
 |--x------2-----2------5------0-----------------------------|
 |----------------------3------0-----------------------------|
   (x4)   (x2)  (x2)   (x3)   (x3)

 |----------------------------------------------------------|
 |----------------------------------------------------------|
 |----------------------------------------------------------|
 |--------2-----2------5------------------------------------| ---|x3 
 |--------2-----2------5------0-----------------------------|
 |---------------------3------0-----------------------------|
         (x2)  (x2)   (x3)   (x3)


 Outro
 |-----------------------------------------------------------|
 |-----------------------------------------------------------|
 |-----------------------------------------------------------|
 |-------------------------------------12-9------------------| ---|x2
 |----9-10------9-10-------9-10------9-----------------------|    
 |--7-------x/8-------x/10------x/10-------------------------|  


		   
AcordesyTabs.com © 2008 Acordes y Tablaturas para guitarra. Tabs and Chords for guitar. Aviso Legal - Contacto
El uso de este sitio está sujeto a la aceptación de los términos y condiciones (20 usuarios online)