tablaturas, partituras y acordes para guitarra
Busca por banda/artista:
 
y/o título de la canción:
A B C D E F G H I J K L M N O P Q R S T U V W X Y Z 0 1 2 3 4 5 6 7 8 9 / Top 100 tabs
Categorías
Usuarios
usuario:
Darse de alta
password:
Artistas más visitados
Publicidad
TOP acordes y tablaturas de Misc television


Estás en: Inicio > Letra M > Acordes y tablaturas de Misc television > Pink panther theme
Pink panther theme
de Misc television
Puntúa este acorde/tab:      
(0.3/5)
Reportar este acorde/tab
  Añadir a tus favoritos
  Imprimir

The Theme to the Pink Panther

I like to do the bass line in slides on the low E, it just sounds fun and accurate plus really easy to play. There's a higher part in the middle, I think
that's on trumpet or something in the original. So that is also tabbed here if you find a better way to play it you do that I'm just offering my
suggestions. it also sounds really awesome with Rhy Fig 2 overlapped on Rhy Fig 1, or stick the latter on bass guitar

Also try hooking your guitar up to a distortion pedal and trying some stuff. I did this on stage in front of a full house and they thought it was sweet
when I added distortion and hit the next two strings aftetr the bass line

not in exact timing:..listen to the song to get the timing right also as I said this song was in my head so some of the notes may be wrong. If this occurs
just bring it up or down the fretboard a little bit 


/=slide up
=slide down

tuning: standard

Intro
|------------------------------||------------------------------|
|------------------------------||------------------------------|
|------------------------------||------------------------------|
|------------------------------||------------------------------|  repeat X2
|------------------------------||------------------------------|
|------5/6-7/8---------------||-------87-65--------------|

Rhy Fig 1
part 1
|------------------------------||------------------------------|
|------------------------------||------------------------------|
|------------------------------||------------------------------|
|------------------------------||------------------------------|
|------------------------------||------------------------------|
|------5/6-7/8---9/10-------||7/8-9/10-1211-5/6-109|

part 2
|------------------------------||------------------------------|
|------------------------------||------------------------------|
|------------------------------||------------------------------|
|------------------------------||------------------------------|
|------------------------------||------------------------------|
|------5/6-7/8---9/10-------||7/8-9/10-1211-5/6-1413|

repeat the above ((rhy fig 1)) a couple of times if you feel inspired






Rhy Fig 2

repeat Rhy Fig 1 part 1 once

|------------------------------||--6/8--6--3--1--0----------|
|------------------------------||----------------------3------|
|------------------------------||------------------------------|
|------------------------------||------------------------------|
|------------------------------||------------------------------|
|------5/6-7/8---------------||------------------------------|

|------------------------------|
|---------5/6-5---------------|     
|------------------------------|
|------------------------------|    just repeat these notes 4 times yes I know the timing
|------------------------------|    is wrong so don't start with me 
|------------------------------|

|------------------------------||----------------------13-----|
|---1-------------------3-----||---1---------------------------|
|-------2-2-------0-2--------||-------2-2--------------------|
|------------------------------||-------------------------------|
|------------------------------||-------------------------------|
|------------------------------||-------------------------------|

mix it up however you like but these are some of the most famous parts of the song I know lots is missing sorry: if you have other parts of this I would
appreciate it 

please send suggestions, questions, comments to citruspaw@yahoo.com 

thank you. I hope you enjoy this cool piece on guitar  

		   
AcordesyTabs.com © 2008 Acordes y Tablaturas para guitarra. Tabs and Chords for guitar. Aviso Legal - Contacto
El uso de este sitio está sujeto a la aceptación de los términos y condiciones (29 usuarios online)