tablaturas, partituras y acordes para guitarra
Busca por banda/artista:
 
y/o título de la canción:
A B C D E F G H I J K L M N O P Q R S T U V W X Y Z 0 1 2 3 4 5 6 7 8 9 / Top 100 tabs
Categorías
Usuarios
usuario:
Darse de alta
password:
Artistas más visitados
Publicidad
TOP acordes y tablaturas de Misc television


Estás en: Inicio > Letra M > Acordes y tablaturas de Misc television > Spongebob theme
Spongebob theme
de Misc television
Puntúa este acorde/tab:      
(0.2/5)
Reportar este acorde/tab
  Añadir a tus favoritos
  Imprimir

SpongeBOB theme
e-mail me for suggestion or comments

Intro...
e|--9-----9-----9-----9----------------| 
B|--9-----9-----9-----9----------------| 
G|--9-----9-----9-----9----------------| 
D|------7-----------7------------------| 
A|-7----------7------------------------|
E|-------------------------------------| 

Sound Effects: 
(hehe)

e|--7-6-7-9-7---9-----9---7-6-7-9-7----9----9----|
B|--------------9-----9----------------9----9----|
G|--------------9-----9----------------9----9----|
D|------------------7---------------------7------|
A|-------------7---------------------7-----------|
E|-----------------------------------------------| 



Then:
e|-11/12--11/12----12-14-14-14-15-12-| 
B|-----------------------------------| 
G|-----------------------------------| 
D|-----------------------------------| 
A|-----------------------------------|
E|-----------------------------------|


Yes:

e|-7-6-7-9-7--7-6-7-9-6-------11/~12-| 
B|-----------------------------------| 
G|-----------------------------------| 
D|-----------------------------------| 
A|-----------------------------------|
E|-----------------------------------|



This is my first attempt to create a tablature hope you Spongebob fans like it
(astig no!) INFOW...e-mail me for any suggestions......
einziger7@yahoo.com

		   
AcordesyTabs.com © 2008 Acordes y Tablaturas para guitarra. Tabs and Chords for guitar. Aviso Legal - Contacto
El uso de este sitio está sujeto a la aceptación de los términos y condiciones (23 usuarios online)