tablaturas, partituras y acordes para guitarra
Busca por banda/artista:
 
y/o título de la canción:
A B C D E F G H I J K L M N O P Q R S T U V W X Y Z 0 1 2 3 4 5 6 7 8 9 / Top 100 tabs
Categorías
Usuarios
usuario:
Darse de alta
password:
Artistas más visitados
Publicidad
TOP acordes y tablaturas de Green day


Holiday
de Green day
Puntúa este acorde/tab:      
(0.4/5)
Reportar este acorde/tab
  Añadir a tus favoritos
  Imprimir

Green day - Holiday         (YOU MIHGT HAVE TO LISTEN TO THE SONG FOR THE RYTHEM)
                                 IM 99% SURE THESE TABS ARE RIGHT!
Intro :                                                
                             X= MUTE  /= SLIDE  ~= HOLD                                 
E|-----------------------|
B|9-9---6-6---13-13---8-8|
G|X-X---X-X----X--X---X-X|   
D|X-X---X-X----X--X---X-X|  <-- PLAY FOUR TIMES
A|8-8---4-4---11-11---6-6|
E|-----------------------|

E|-----------------------|
B|-----------------------|
G|10-10---6-6---------8-8|
D|10-10---6-6---6-6---8-8|  <-- PLAY TWO TIMES
A|-8--8---4-4---6-6---6-6|
E|--------------4-4------|

VERSE       

E|-----------------------|
B|-----------------------|
G|10-10---6-6---------8-8|
D|10-10---6-6---6-6---8-8|   <-- PLAY THREE TIMES
A|-8--8---4-4---6-6---6-6|
E|--------------4-4------|
                      THEN AFTER YOU PLAY THAT THREE TIMES, PLAY THIS EIGHT TIMES
E|-----------------------|
B|-----------------------|
G|3----------------------|
D|3----------------------|  <-- PLAY EIGHT TIMES 
A|5----------------------|
E|-----------------------|

CHOURS 

E|-----------------------------------|
B|-----------------------------------|
G|---------4-4-4-4------------8-8-8-8|
D|3-3-3-3--6-6-6-6--6-6-6-6---8-8-8-8|  <-- PLAY TWO TIMES
A|3-3-3-3--6-6-6-6--6-6-6-6---6-6-6-6|
E|1-1-1-1-----------4-4-4-4----------|

E|----------------------------------|
B|----------------------------------|
G|---------6-6-6-6-----------5-5-5-5|
D|3-3-3-3--6-6-6-6--6-6-6-6--5-5-5-5|  <-- PLAY TWO TIMES
A|3-3-3-3--4-4-4-4--6-6-6-6--3-3-3-3|
E|1-1-1-1-----------4-4-4-4---------|

SOLO

E|--------------------|
B|--------------------|
G|-----------6---10---|
D|3-3/5/6-6--6-8-10-10|
A|3-3/5/6-6--4-8--8-10|
E|1-1/3/4-4----6-----8|
                              <-- PLAY BOTH TWO TIMES
E|---------------------|
B|---------------------|
G|-----------8----10---|
D|3-3/5/6-6--8-10-10-10|
A|3-3/5/6-6--6-10--8-10|
E|1-1/3/4-4-----8-----8|

SOLO #2                      

E|---------------------------------------------|
B|---------------------------------------------|
G|10-10-10-12-13--------------12---------13--13|
D|---------------13-11-10--10---13--10-10--10--|
A|---------------------------------------------|
E|---------------------------------------------|
                                                   <-- PLAY ONCE
E|----------------------------12-13|
B|--------------------------13-----|
G|10-10-10-12-13----------12-------|
D|----------------13-11-10---------|
A|---------------------------------|
E|---------------------------------|

OUTRO

E|---------------------|
B|---------------------|
G|10-10--6-6--8/5/10-10|
D|10-10--6-6--8/5/10-10|  <-- PLAY ONCE
A|-8--8--4-4--6/3/-8--8|
E|---------------------|

HERES THE LYRICES TO THE SONG IF YOU NEED THEM!
                                                (IM NOT A GOOD SPELLER)LOL
HEAR THE SOUND OF THE FALLIN RAIN
COMING DOWN LIKE AN ARGAGODON FLAME
THE SHAME
THE ONES WHO DIED WITHOUT A NAME

HEAR THE DOGS HOWLIN OUT OF KEY
TO A HYM CALLED "FATH AND MISORY"
AND BLEED 
THE COMAPANY LOST THE WAR TODAY

I BEG TO DREAM AND DIFFER 
FROM ALL HOLLOW LIES
THIS IS THE DAWNIN OF THE 
REST OF OUR LIVES 
ON HOLIDAY!

HEAR THE DRUM POUNDING OUT OF LINE
ANOTHER PROTESTER HAS CROSSED THE LINE
TO FIND
THE MONEYS ON THE OTHER SIDE

CAN I GET ANOTHER AMEN
THERES A FLAG WRAPED AROUND A SCORE OF MEN
A GAG
A PLASTIC BAG ON A MONUMENT

I BEG TO DREAM AND DIFFER
FROM ALL HOLLOW LIES 
THIS IS THE DAWNIN OF THE
REST OF OUR LIVES
ON HOLIDAY!

"THE REPUTIVE FROM CALFORIA HAS THE FLOOR"

ZEIG HAIL TO THE PRESIDENT GASMAN
BOMBS AWAY IS YOUR PUNISHMNET!
POEVIERISE THE EFFLE TOWER
WHO CRITIZE YOUR GOVEREMENT!
BANG BANG GOES THE BROKEN GLASS 
KILL ALL THE FAGS THAT DONT AGREE!
TRAILS BY FIRE SETTING FIRE
THATS NOT A WAY THATS MEANT FOR ME!
JUST CAUSE, JUST CAUSE, BECAUSE WERE OUTLAWS, YEAH!

I BEG TO DREAM AND DIFFER 
FROM ALL HOLLOW LIES 
THIS IS THE DAWNIN OF THE
REST OF OUR LIVES
I BEG TO DREAM AND DIFFER 
FROM ALL HOLLOW LIES
THIS IS THE DAWNIN OF THE 
REST OF OUR LIVES
ON HOLIDAY!
THIS IS OUR LIVES ON HOLIDAY!

ANY QUESTION, COMMENTS, COMMPANTS? E-MAIL ME AT ANDYSPLACE@SBCGLOBAL.NET 

BY: ANDREW WROBLEWSKI 

PEACE OUT STAY KOOL!

		   
AcordesyTabs.com © 2008 Acordes y Tablaturas para guitarra. Tabs and Chords for guitar. Aviso Legal - Contacto
El uso de este sitio está sujeto a la aceptación de los términos y condiciones (31 usuarios online)