tablaturas, partituras y acordes para guitarra
Busca por banda/artista:
 
y/o título de la canción:
A B C D E F G H I J K L M N O P Q R S T U V W X Y Z 0 1 2 3 4 5 6 7 8 9 / Top 100 tabs
Categorías
Usuarios
usuario:
Darse de alta
password:
Artistas más visitados
Publicidad
TOP acordes y tablaturas de Metallica


Estás en: Inicio > Letra M > Acordes y tablaturas de Metallica > Hit the lights
Hit the lights
de Metallica
Puntúa este acorde/tab:      
(0.3/5)
Reportar este acorde/tab
  Añadir a tus favoritos
  Imprimir

hit the lights solo ending
Solo Ending (3:50) 

P PULL-OFF
H HAMMER-ON
B 1/2 BEND
FB FULL BEND
S SLIDE
    P            P                  P                          H  P                  P            
|-20-17-17-17--20-17--------------------------------------------------------------------------------------|
|--------------------20-17--17-17-20-17-------------------------------------------------------------------|
|----------------------------------------19-17----19--17-17--17-19-17-------------------------------------|
|----------------------------------------------19---------------------19-17----17-19--17------------------|
|---------------------------------------------------------------------------19-----------19-17-15---------|
|-------------------------------------------------------------------------------------------------17-17HB-|
                         P                                   P     P     P
|----------------------------------------------------------------------20-17------------------------------|
|--------------------------------------------17---20-17S16-20-17-20-17-------20-17-17-17-17--20-17S16--17-|
|--------------------------------------17-19--------------------------------------------------------------|
|----------------17-17-19--17----17-19--------------------------------------------------------------------|
|-------15-17S19--------------19--------------------------------------------------------------------------|
|-15-17---------------------------------------------------------------------------------------------------|
    P                                             P     P                 P                                                                               
|-----------------------------------------------------20-17-----------------------------------------------|
|-20-17--------------------------------------17-20-17-------20-17-17-17-20-17-17--------------------------|
|-------19FB-17-17-17-19-17----17-19-17-19FB-------------------------------------19-17-17-17-19P17-17-17--|
|---------------------------19----------------------------------------------------------------------------|
|---------------------------------------------------------------------------------------------------------|
|---------------------------------------------------------------------------------------------------------|

		   
AcordesyTabs.com © 2008 Acordes y Tablaturas para guitarra. Tabs and Chords for guitar. Aviso Legal - Contacto
El uso de este sitio está sujeto a la aceptación de los términos y condiciones (31 usuarios online)