tablaturas, partituras y acordes para guitarra
Busca por banda/artista:
 
y/o título de la canción:
A B C D E F G H I J K L M N O P Q R S T U V W X Y Z 0 1 2 3 4 5 6 7 8 9 / Top 100 tabs
Categorías
Usuarios
usuario:
Darse de alta
password:
Artistas más visitados
Publicidad
TOP acordes y tablaturas de Metallica


Estás en: Inicio > Letra M > Acordes y tablaturas de Metallica > Guitar bass doodle
Guitar bass doodle
de Metallica
Puntúa este acorde/tab:      
(0.3/5)
Reportar este acorde/tab
  Añadir a tus favoritos
  Imprimir

This is the guitar/bass doodle played in CUNNING STUNTS.

I tabbed this with Raphael Malfliet.

= slide 
h= hammer
p= pull
^= bend
~= vibrato

First there is a part played by Jason Newsted followed by the bass solo from 
My friend of misery. After that's played two times, Kirk Hammet begins to play:

eb-------------------------------------------|                (In this part , Kirk uses 
bb-------------------------------------------|                 a volume-pedal. He presses 
gb------------------9--------9--7--5--7~-----|  REPEAT 1x      this pedal slightly before 
db---7~-----7--10-----7~---------------------|                 every note )
ab-------------------------------------------|
eb-------------------------------------------|

eb-----------------------|--------------------------|---------------------------------|
bb--*1310--10-----------|---*1310--10--------------|---------------------------------|
gb-----------------------|--------------------------|----------9----------------------|
db--------------14--10---|--------------10--12------|---7--10-----7-----7-h9-5-------|
ab-----------------------|--------------------------|---------------------------------|
eb-----------------------|--------------------------|---------------------------------|

*here you can also heavely bend the string on the 11th fret.

eb-----------------------|---------------3h6p3h6p3h6p3h6p3h6p3h6p3---|
bb---------------5^6--3--|-------------------------------------------|
gb---------------5^6--3--|-------------------------------------------|
db---------------5^6--3--|-------------------------------------------|
ab------2--3-------------|------2--3---------------------------------|
eb---3-------------------|---3---------------------------------------|

eb---------------6------|-------------------------------------------|
bb---------------8------|-------------------------------------------|
gb---------------7------|--------------------------1--2--2/4~-------|
db---------------8------|-----------------------2-------------------|
ab------2--3-------------|------2-------------2----------------------|
eb---3-------------------|---3-----------0--3------------------------|

After this, the doodle continues with the intro from Welcome home Sanitarium:

eb-------12-----3--3h5p3-|--------12------2--2h3-|
bb-------12--------------|--------12-------------|
gb-----------------------|-----------------------|
db-----------------------|-----------------------|
ab-----------------------|-----------------------|
eb---0-------------------|---0-------------------|

eb-----12--------12--------12----------12-12-12-------------|
bb-------12--------12--------12----------------12-----------|
gb-----------------------------12----------------12---------|
db----------------------------------------------------------|
ab----------------------------------------------------------|
eb-0---------0---------0-----------0-----------------0------|

eb---------------------------------------------------------------------|
bb---------------------------------------------------------------------|
gb-------------0------------0------------0-----------------------------| REPEAT 5x
db---------4-------------5------------7------------0-------------------| ( slow down the 
ab------2-------------3------------5------------4------------2-----4---|   6th time )
eb---0-------------0------------0------------5---------3--3------5-----|

HAVE FUN !!!!!!!!!

		   
AcordesyTabs.com © 2008 Acordes y Tablaturas para guitarra. Tabs and Chords for guitar. Aviso Legal - Contacto
El uso de este sitio está sujeto a la aceptación de los términos y condiciones (28 usuarios online)