tablaturas, partituras y acordes para guitarra
Busca por banda/artista:
 
y/o título de la canción:
A B C D E F G H I J K L M N O P Q R S T U V W X Y Z 0 1 2 3 4 5 6 7 8 9 / Top 100 tabs
Categorías
Usuarios
usuario:
Darse de alta
password:
Artistas más visitados
Publicidad
TOP acordes y tablaturas de Green day


Holiday
de Green day
Puntúa este acorde/tab:      
(0.6/5)
Reportar este acorde/tab
  Añadir a tus favoritos
  Imprimir

Green day ~ Holiday     ~ = HOLD  / = SLIDE  X = MUTE   IM 99% SURE THESE TABS ARE RIGHT!

INTRO

E|----------------------| 
B|-9-9--6-6--13-13--8-8-|
G|-X-X--X-X--X--X---X-X-|
D|-X-X--X-X--X--X---X-X-|  <-- REPEAT 4 TIMES
A|-8-8--4-4--11-11--6-6-|
E|----------------------|

E|----------------------|
B|----------------------|
G|-10-10--6-6-------8-8-|
D|-10-10--6-6--6-6--8-8-|  <-- REPEAT 2 TIMES
A|--8--8--4-4--6-6--6-6-|
E|-------------4-4------|

VERSE

E|----------------------|
B|----------------------|
G|-10-10--6-6-------8-8-|
D|-10-10--6-6--6-6--8-8-|  <-- REPEAT 3 TIMES
A|--8--8--4-4--6-6--6-6-|
E|-------------4-4------|

E|---|
B|---|
G|-5-|
D|-5-|  <-- REPEAT 8 TIMES
A|-3-|
E|---|

COURSE 

E|------------------------------------|------------------------------------|
B|------------------------------------|------------------------------------|
G|----------6-6-6-6-----------8-8-8-8-|----------6-6-6-6-----------5-5-5-5-|
D|-3-3-3-3--6-6-6-6--6-6-6-6--8-8-8-8-|-3-3-3-3--6-6-6-6--6-6-6-6--5-5-5-5-|
A|-3-3-3-3--4-4-4-4--6-6-6-6--6-6-6-6-|-3-3-3-3--4-4-4-4--6-6-6-6--3-3-3-3-|
E|-1-1-1-1-----------4-4-4-4----------|-1-1-1-1-----------4-4-4-4----------|

INTRO 2

E|----------------------|
B|-9-9--6-6--13-13--8-8-|
G|-X-X--X-X---X--X--X-X-|
D|-X-X--X-X---X--X--X-X-|  <-- REPEAT 2 TIMES 
A|-8-8--4-4--11-11--6-6-|
E|----------------------|

VERSE 2

E|----------------------|
B|----------------------|
G|-10-10--6-6-------8-8-|
D|-10-10--6-6--6-6--8-8-|  <-- REPEAT 3 TIMES
A|--8--8--4-4--6-6--6-6-| 
E|-------------4-4------|

E|---|
B|---|
G|-5-|
D|-5-|  <-- REPEAT 8 TIMES
A|-3-|
E|---|

COURSE 2

E|------------------------------------|------------------------------------|
B|------------------------------------|------------------------------------|
G|----------6-6-6-6-----------8-8-8-8-|----------6-6-6-6-----------5-5-5-5-|
D|-3-3-3-3--6-6-6-6--6-6-6-6--8-8-8-8-|-3-3-3-3--6-6-6-6--6-6-6-6--5-5-5-5-|
A|-3-3-3-3--4-4-4-4--6-6-6-6--6-6-6-6-|-3-3-3-3--4-4-4-4--6-6-6-6--3-3-3-3-|
E|-1-1-1-1-----------4-4-4-4----------|-1-1-1-1-----------4-4-4-4----------|

SOLO

E|--------------------|----------------------|
B|--------------------|----------------------|
G|-----------6---8----|-----------8----10----|
D|-3-3/56-6-6-8-8-10-|-3-3/56-6-8-10-10-10-|
A|-3-3/56-6-4-8-6-10-|-3-3/56-6-6-10--8-10-|
E|-1-1/34-4---6----8-|-1-1/34-4----8-----8-|

SOLO 2

E|-----------------------------------------------|--------------------------------------|
B|----------------------------------------13--13-|----------------------------13-17--18~|
G|-10-10-10-12-13-----------12----------10--10---|10-10-10--12-13-----------12----------|
D|----------------13--11-10----13--10-10---------|----------------13--11-10-------------|
A|-----------------------------------------------|--------------------------------------|
E|-----------------------------------------------|--------------------------------------|

COURSE 3

E|------------------------------------|------------------------------------|
B|------------------------------------|------------------------------------|
G|----------6-6-6-6-----------8-8-8-8-|----------6-6-6-6-----------5-5-5-5-|
D|-3-3-3-3--6-6-6-6--6-6-6-6--8-8-8-8-|-3-3-3-3--6-6-6-6--6-6-6-6--5-5-5-5-|
A|-3-3-3-3--4-4-4-4--6-6-6-6--6-6-6-6-|-3-3-3-3--4-4-4-4--6-6-6-6--3-3-3-3-|
E|-1-1-1-1-----------4-4-4-4----------|-1-1-1-1-----------4-4-4-4----------|

E|---|
B|---|
G|-5-|
D|-5-|  <-- REPEAT 7 TIMES
A|-3-|
E|---|

OUTRO 

E|----------------------|
B|----------------------|
G|-10-10--6-6-------8-8-|
D|-10-10--6-6--6-6--8-8-|  <-- REPEAT 3 TIMES
A|--8--8--4-4--6-6--6-6-|
E|-------------4-4------|

E|----------------------|
B|----------------------|
G|-10-10--6-6--8-6-10---|
D|-10-10--6-6--8-6-10-3-|
A|--8--8--4-4--6-4--8-3-|
E|--------------------1-|

ANY COMMENTS,COMPLAINS, QUESTIONS, E-MAIL ME AT LAZYKID8458@YAHOO.COM BYE! 

		   
AcordesyTabs.com © 2008 Acordes y Tablaturas para guitarra. Tabs and Chords for guitar. Aviso Legal - Contacto
El uso de este sitio está sujeto a la aceptación de los términos y condiciones (25 usuarios online)