tablaturas, partituras y acordes para guitarra
Busca por banda/artista:
 
y/o título de la canción:
A B C D E F G H I J K L M N O P Q R S T U V W X Y Z 0 1 2 3 4 5 6 7 8 9 / Top 100 tabs
Categorías
Usuarios
usuario:
Darse de alta
password:
Artistas más visitados
Publicidad
TOP acordes y tablaturas de Rammstein


Estás en: Inicio > Letra R > Acordes y tablaturas de Rammstein > Stirb nicht vor mir
Stirb nicht vor mir
de Rammstein
Puntúa este acorde/tab:      
(1.7/5)
Reportar este acorde/tab
  Añadir a tus favoritos
  Imprimir

Song: Stirb nicht vor mir / Dont die before I do
Artist: Rammstein
Album: Rosenrot

Tabed by: Pieter Verhulst

Tuning: EBGDAE
intro: 

e------5-------5-------5-------5-------5-------5----------------------
b----7---7---7---7---7---7---7---7---7---7---7---7---2-3-2---2-3-2----
g--7-------7-------6-------6-------7-------7-------4-------4----------      
d---------------------------------------------------------------------
a---------------------------------------------------------------------
e---------------------------------------------------------------------

 (Bm)             (F#)            (G)             (Em)
e------5-------5-------5-------5-------5-------5----------------------
b----7---7---7---7---7---7---7---7---7---7---7---7---2-3-2---2-3-2----
g--7-------7-------6-------6-------7-------7-------4-------4----------      
d---------------------------------------------------------------------
a---------------------------------------------------------------------
e---------------------------------------------------------------------


G         F#           Bm
Die Nacht offnet ihren Scho?
G              F#   Bm
Das Kind hei?t Einsamkeit
G      F#              Bm
Es ist kalt und regungslos
    G     F#m          Bm
Ich weine leise in die Zeit

    G          F#    Bm
Ich wei? nicht wie du hei?t
         G          F#      Bm
Doch ich wei?, dass es dich gibt
    Em         Em   Bm
Ich wei?, dass irgendwann
G              F#
Irgendwer mich liebt

He comes to me every night
No words are left to say
With his hands around my neck
I close my eyes and pass away

I don?t know who he is
In my dreams he does exist
His passion is a kiss
And I can not resist

Bm  F#m
Ich warte hier
G                Em
Don?t die before I do
Bm  F#m
Ich warte hier
G               A
Stirb nicht vor mir

  D                  F#
I don?t know who you are
  G               Em
I know that you exist (Stirb nicht)
    D                   F#
Sometimes love seems so far (Ich warte hier)
     G               Em
Your love I can?t dismiss

G   F#m
Ich warte hier

G    F#      Bm
Alle Hauser sind verschneit
G          F#7            Bm
Und in den Fenstern Kerzenlicht
G    F#           Bm
Dort liegen sie zu zweit
    G                      F#
Und ich, ich warte nur auf dich

Ich warte hier
Don?t die before I do
Ich warte hier
Stirb nicht vor mir

  Bm                 F#m
I don?t know who you are
  G               Em
I know that you exist (Stirb nicht)
    Bm                  F#
Sometimes love seems so far (Ich warte hier)
     G               A
Your love I can?t dismiss
                Bm
Stirb nicht vor mir


This is an easy song, so it won't be to difficult to play. 

GOOD LUCK !!!
		   
AcordesyTabs.com © 2008 Acordes y Tablaturas para guitarra. Tabs and Chords for guitar. Aviso Legal - Contacto
El uso de este sitio está sujeto a la aceptación de los términos y condiciones (27 usuarios online)