tablaturas, partituras y acordes para guitarra
Busca por banda/artista:
 
y/o título de la canción:
A B C D E F G H I J K L M N O P Q R S T U V W X Y Z 0 1 2 3 4 5 6 7 8 9 / Top 100 tabs
Categorías
Usuarios
usuario:
Darse de alta
password:
Artistas más visitados
Publicidad
TOP acordes y tablaturas de Dimmu borgir


Estás en: Inicio > Letra D > Acordes y tablaturas de Dimmu borgir > Progenies of the great apocalypse
Progenies of the great apocalypse
de Dimmu borgir
Puntúa este acorde/tab:      
(0.1/5)
Reportar este acorde/tab
  Añadir a tus favoritos
  Imprimir
Riff 1 
--------------------------------------------------------- 
--------------------------------------------------------- 
7-7-7-7-----7-7-7-7-------------------------------------- 
7-7-7-7-----7-7-7-7-------------------------------------- 
5-5-5-5-----5-5-5-5-------------------------------------- 
5-5-5-5-----5-5-5-5-------------------------------------- 
. . . .     . . . 
Riff 2 
Guitar 1 
---------------------------------------------------------- 
---------------------------------------------------------- 
------------------------------------------------7--5--3--2 
------------------------------------------------7--5--3--2 
------------------------------------------------5--3--1--0 
2222-2222-2222-22222-22222-222222-22222-2222222----------- 
.... .... .... ..... ..... ...... ..... ....... 
Guitar2 
---------------------------------------------------------- 
---------------------------------------------------------- 
------------------------------------------------9--7--5--3 
------------------------------------------------9--7--5--3 
------------------------------------------------7--5--3--1 
2222-2222-2222-22222-22222-222222-22222-2222222-7--5--3--1 
.... .... .... ..... ..... ...... ..... ....... 
 
Riff 3 
----------------------------------------------------------- 
----------------------------------------------------------- 
4----------------------4----------------------------------- 
4--------4-4-4-4-4-----4----------------------------------- 
2--------2-2-2-2-2-----2----------------------------------- 
2--------2-2-2-2-2-----2----------------------------------- 
         . . . . . 
Riff 4 
----------------------------------------------------------- 
----------------------------------------------------------- 
----------------------------------------------------------- 
44444444444------------------------------------------------ 
44444444444------------------------------------------------ 
22222222222------------------------------------------------ 
........... 
Riff 5 
---------------------------------------------------------- 
---------------------------------------------------------- 
---------4------------------------------------------------ 
4-4-4-4--4------------------------------------------------ 
4-4-4-4--2------------------------------------------------ 
2-2-2-2--2------------------------------------------------ 
. . . . 
Riff 6 
------------------------------------------------------------------------------- 
------------------------------------------------------------------------------- 
------------------------------------------------------------------------------- 
5555555555555555555544444444444444444444333333333333333333322222222222222222222 
5555555555555555555544444444444444444444333333333333333333322222222222222222222 
3333333333333333333322222222222222222222111111111111111111100000000000000000000 
............................................................................... 
Riff 7 
--------------------------------------------------------------------------- 
--------------------------------------------------------------------------- 
--------------------------------------------------------------------------- 
55-55-55-55-55-55-55-55-44-44-44-44-44-44-44-44-33-33-33-33-33-33-33------- 
55-55-55-55-55-55-55-55-44-44-44-44-44-44-44-44-33-33-33-33-33-33-33------- 
33-33-33-33-33-33-33-33-22-22-22-22-22-22-22-22-11-11-11-11-11-11-11------- 
.. .. .. .. .. .. .. .. .. .. .. .. .. .. .. .. .. .. .. .. .. .. .. 
Fill 1 
------------------------------- 
------------------------------- 
7-7-7-7----7-7-7-7------------- 
7-7-7-7----7-7-7-7------------- 
5-5-5-5----5-5-5-5------------- 
5-5-5-5----5-5-5-5------------- 
. . . .    . . . .
		   
AcordesyTabs.com © 2008 Acordes y Tablaturas para guitarra. Tabs and Chords for guitar. Aviso Legal - Contacto
El uso de este sitio está sujeto a la aceptación de los términos y condiciones (24 usuarios online)