tablaturas, partituras y acordes para guitarra
Busca por banda/artista:
 
y/o título de la canción:
A B C D E F G H I J K L M N O P Q R S T U V W X Y Z 0 1 2 3 4 5 6 7 8 9 / Top 100 tabs
Categorías
Usuarios
usuario:
Darse de alta
password:
Artistas más visitados
Publicidad
TOP acordes y tablaturas de Lit


Four
de Lit
Puntúa este acorde/tab:      
(0.2/5)
Reportar este acorde/tab
  Añadir a tus favoritos
  Imprimir
#----------------------------------PLEASE NOTE---------------------------------#
#This file is the author's own work and represents their interpretation of the #
#song. You may only use this file for private study, scholarship, or research. #
#------------------------------------------------------------------------------#

Lit "Four"

Intro & Verses
------------------
------------------
------------------
--3-3-3--7-7-8-8--
--1-1-1--5-5-6-6--
--1-1-1--5-5-6-6--

Verses & Pre Chorus
|-----------------------------------|-------------------------------------------
|-----------------------------------|-------------------------------------------
|-----------------------------------|-------------------------------------------
|--X-X-7/8-X-X-6/7-X-X-5/6-X-X-4/5--|--7-7-7-7-7-7-7-7-6-6-6-6-6-6-6-6-5-5-5-5-5
|--X-X-7/8-X-X-6/7-X-X-5/6-X-X-4/5--|--7-7-7-7-7-7-7-7-6-6-6-6-6-6-6-6-5-5-5-5-5
|--X-X-5/6-X-X-4/5-X-X-3/4-X-X-2/3--|--5-5-5-5-5-5-5-5-4-4-4-4-4-4-4-4-3-3-3-3-3

Chorus
|-------------------------------------------------------------------|
|-------------------------------------------------------------------|
|-------------------------------------------------------------------|
|--7-7-7-7-7-7-7-7-6-6-6-6-6-6-6-6-5-5-5-5-5-5-5-5-5-5-5-5-5-5-5-5--|
|--7-7-7-7-7-7-7-7-6-6-6-6-6-6-6-6-5-5-5-5-5-5-5-5-5-5-5-5-5-5-5-5--|
|--5-5-5-5-5-5-5-5-4-4-4-4-4-4-4-4-3-3-3-3-3-3-3-3-3-3-3-3-3-3-3-3--|
		   
AcordesyTabs.com © 2008 Acordes y Tablaturas para guitarra. Tabs and Chords for guitar. Aviso Legal - Contacto
El uso de este sitio está sujeto a la aceptación de los términos y condiciones (26 usuarios online)