tablaturas, partituras y acordes para guitarra
Busca por banda/artista:
 
y/o título de la canción:
A B C D E F G H I J K L M N O P Q R S T U V W X Y Z 0 1 2 3 4 5 6 7 8 9 / Top 100 tabs
Categorías
Usuarios
usuario:
Darse de alta
password:
Artistas más visitados
Publicidad
TOP acordes y tablaturas de Lit


Estás en: Inicio > Letra L > Acordes y tablaturas de Lit > Miserable
Miserable
de Lit
Puntúa este acorde/tab:      
(0.1/5)
Reportar este acorde/tab
  Añadir a tus favoritos
  Imprimir
#----------------------------------PLEASE NOTE---------------------------------#
#This file is the author's own work and represents their interpretation of the #
#song. You may only use this file for private study, scholarship, or research. #
#------------------------------------------------------------------------------#

"miserable"_____________________________________________________________________

------------------------------------------------------------------------
------------------------------------------------------------------------
------------------------------------------------------------------------
--9-9-9-9--6-6-6--3-3-3-3-3-3-3-3----------------------------------
--9-9-9-9--6-6-6--3-3-3-3-3-3-3-3----------------------------------
--7-7-7-7--4-4-4--1-1-1-1-1-1-1-1----------------------------------

________________________________________________________________________________

--------------------------------------------------------------------------
--------------------------------------------------------------------------
--4--4--4--4--4--4--4--4-----------------------------------------------
--4--4--4--4--4--4--4--4--6-6-6-6-6-6-6-6----------------------------
--2--2--2--2--2--2--2--2--6-6-6-6-6-6-6-6----------------------------
-----------------------------4-4-4-4-4-4-4-4----------------------------

________________________________________________________________________________

--------------------------------------------------------------------------
--------------------------------------------------------------------------
--4-4-4-4-4-4-----------------------------------------------------------
--4-4-4-4-4-4--6-6-6-6-6-6-6------------------------------------------
--2-2-2-2-2-2--6-6-6-6-6-6-6------------------------------------------
-----------------4-4-4-4-4-4-4------------------------------------------

		   
AcordesyTabs.com © 2008 Acordes y Tablaturas para guitarra. Tabs and Chords for guitar. Aviso Legal - Contacto
El uso de este sitio está sujeto a la aceptación de los términos y condiciones (27 usuarios online)