tablaturas, partituras y acordes para guitarra
Busca por banda/artista:
 
y/o título de la canción:
A B C D E F G H I J K L M N O P Q R S T U V W X Y Z 0 1 2 3 4 5 6 7 8 9 / Top 100 tabs
Categorías
Usuarios
usuario:
Darse de alta
password:
Artistas más visitados
Publicidad
TOP acordes y tablaturas de Bachman tal


Estás en: Inicio > Letra B > Acordes y tablaturas de Bachman tal > Shes so high
Shes so high
de Bachman tal
Puntúa este acorde/tab:      
(0.5/5)
Reportar este acorde/tab
  Añadir a tus favoritos
  Imprimir

Tal Bachman – She’s So High
       Eadgbe
Asus4  002200
Gbm    244222
E	  022100
Dsus4  x00320	

  Intro/Pre-Chorus:   (Let ring throughout)
  Intro/Chord backup: (palm mute)

 Asus4 Gbm  E    Dsus4      Asus4 Gbm  E    Dsus4
e------7---------7-9-7------------7---------7-9-7---------|
b---10---10---10-------10------10---10---10-------10------|
g—9---------9----------------9---------9------------------|
d---------------------------------------------------------|
a---------------------------------------------------------|
E---------------------------------------------------------|


Asus4 Gbm  E    Dsus4      Asus4 Gbm  E    Dsus4
e------7---------7-9-7------------7---------7-9-7---------|
b---10---10---10-------10------10---10---10-------10------|
g—9---------9----------------9---------9------------------|
d---------------------------------------------------------|
a---------------------------------------------------------|
E---------------------------------------------------------|
  She’s fly, flash & foe,    no  touch  of  silicon


Asus4 Gbm  E    Dsus4      Asus4 Gbm  E    Dsus4
e------7---------7-9-7------------7---------7-9-7---------|
b---10---10---10-------10------10---10---10-------10------|
g—9---------9----------------9---------9------------------|
d---------------------------------------------------------|
a---------------------------------------------------------|
E---------------------------------------------------------|
She’s touch, smell, sight, taste, and sound…


                Dsus4 (let ring)
e---------------0-----------------------------------------|
b---------------3-----------------------------------------|
g--------2—-1---2-----------------------------------------|
d-2—-4-2--------0-----------------------------------------|
a---------------0-----------------------------------------|
E---------------x-----------------------------------------|
But Somehow I can’t believe    that anything should happen.


Asus4 Gbm  E    Dsus4                      Dsus4 (let ring)
e------7---------7-9-7--------------------0---------------|
b---10---10---10-------10-----------------3---------------|
g—9---------9-----------------------------2---------------|
d---------------------------------2--1----0---------------|
a--------------------------2-4-2----------0---------------|
E-----------------------------------------0---------------|
                           I know where I belong…


Chorus intro:

                    Gbm   E  Asus4 E
And nothings gonna happen

Chorus:

E     Asus4    Dsus4
Cause she’s so high,

     Asus4               E
high above me, she’s so lovely

Asus4    Dsus4
She’s so high
                                   (Solo 1)
   Asus4              E     Asus4 Dsus4
A  Cleopatra, Joan of Arc or Aphrodite.

	Solo 1
	e-------------------------------------|
	b--10-(12)b14b12-10---10-(12)b14b12---|
	g-----------------------------------9-|
	d-------------------------------------|
	a-------------------------------------|
	E-------------------------------------|

Asus4    Dsus4
She’s so high


High above me.


Asus4 Gbm  E    Dsus4      Asus4 Gbm  E    Dsus4
e------7---------7-9-7------------7---------7-9-7---------|
b---10---10---10-------10------10---10---10-------10------|
g—9---------9----------------9---------9------------------|
d---------------------------------------------------------|
a---------------------------------------------------------|
E---------------------------------------------------------|
                           First class & fancy free,

                                (Solo 2)
Asus4 Gbm  E    Dsus4      Asus4 Gbm  E    Dsus4
e------7---------7-9-7------------7---------7-9-7---------|
b---10---10---10-------10------10---10---10-------10------|
g—9---------9----------------9---------9------------------|
d---------------------------------------------------------|
a---------------------------------------------------------|
E---------------------------------------------------------|
  She’s   hot   society.  She’s got the best of everything.

	Solo 2 (can play with slide)
        e-----------------------------|
	b-(12)b14b12-10-9h10----9-----|
	g--------------------11---9---|
	d-----------------------------|
	a-----------------------------|
	E-----------------------------|

Asus4 Gbm  E    Dsus4                      Dsus4 (let ring)
e------7---------7-9-7---------------------0--------------|
b---10---10---10-------10------------------3--------------|
g—9---------9-------------------------2-1--2--------------|
d-------------------------------2-4-2------0--------------|
a------------------------------------------0--------------|
E------------------------------------------0--------------|
					  What could a guy like me…

Ever really offer…


   (Solo 2)
Asus4 Gbm  E    Dsus4                      Dsus4 (let ring)
e------7---------7-9-7--------------------0---------------|
b---10---10---10-------10-----------------3---------------|
g—9---------9-----------------------------2---------------|
d---------------------------------2--1----0---------------|
a--------------------------2-4-2----------0---------------|
E-----------------------------------------0---------------|
                          She’s perfect as she can be…


Chorus intro:

                    Gbm   E  Asus4 E
Why should I even bother?


Goto Chorus


Main Solo:

   Asus4             Dsus4  Asus4        Dsus4  Asus4
e--12----12-------------12----12-------------12-----------|
b--12b14-12b14b12-10----12b14-12b14b12-10----12b14b12-10--|
g--------------------12-------------------11--------------|
d---------------------------------------------------------|
a---------------------------------------------------------|
E---------------------------------------------------------|


  Dsus4         Asus4         Dsus4            Asus4
e-------------------------------------------17b19b17------|
b-------10-12-14b15b14~~~----15b17b15-14-------------17---|
g-10-12-------------------14-------------14---------------|
d---------------------------------------------------------|
a---------------------------------------------------------|
E---------------------------------------------------------|


     Dsus4                 Asus4
e-14-14b16-16b14-12---------------|
b-------------------12b13b12-10---|
g---------------------------------|
d---------------------------------|
a---------------------------------|
E---------------------------------|


Asus4 Gbm  E    Dsus4      Asus4 Gbm  E    Dsus4
e------7---------7-9-7------------7---------7-9-7---------|
b---10---10---10-------10------10---10---10-------10------|
g—9---------9----------------9---------9------------------|
d---------------------------------------------------------|
a---------------------------------------------------------|
E---------------------------------------------------------|
                             She comes to speak to me.


Asus4 Gbm  E    Dsus4      Asus4 Gbm  E    Dsus4
e------7---------7-9-7------------7---------7-9-7---------|
b---10---10---10-------10------10---10---10-------10------|
g—9---------9----------------9---------9------------------|
d---------------------------------------------------------|
a---------------------------------------------------------|
E---------------------------------------------------------|
I freeze immediately. Cause what she says sounds so unreal.


Asus4 Gbm  E    Dsus4                      Dsus4 (let ring)
e------7---------7-9-7--------------------0---------------|
b---10---10---10-------10-----------------3---------------|
g—9---------9-----------------------------2---------------|
d---------------------------------2--1----0---------------|
a--------------------------2-4-2----------0---------------|
E-----------------------------------------0---------------|
                      Cause somehow I can’t believe…

That anything should happen…


Asus4 Gbm  E    Dsus4                      Dsus4 (let ring)
e------7---------7-9-7--------------------0---------------|
b---10---10---10-------10-----------------3---------------|
g—9---------9-----------------------------2---------------|
d---------------------------------2--1----0---------------|
a--------------------------2-4-2----------0---------------|
E-----------------------------------------0---------------|
                          I know where I belong…

Chorus intro:

                    Gbm   E (piano<forte)
And nothings gonna happen   yeah-yeah Yeah YEAH!

Goto Chorus

        (Gradually slow tempo)
Asus4 Gbm  E    Dsus4                 Asus4 (let ring)
e------7---------7---9----7-----------0-------------------|
b---10---10---10-----------------10---0-------------------|
g—9---------9-------------------------2-------------------|
d-------------------------------------2-------------------|
a-------------------------------------0-------------------|
E-------------------------------------0-------------------|

		   
AcordesyTabs.com © 2008 Acordes y Tablaturas para guitarra. Tabs and Chords for guitar. Aviso Legal - Contacto
El uso de este sitio está sujeto a la aceptación de los términos y condiciones (45 usuarios online)