tablaturas, partituras y acordes para guitarra
Busca por banda/artista:
 
y/o título de la canción:
A B C D E F G H I J K L M N O P Q R S T U V W X Y Z 0 1 2 3 4 5 6 7 8 9 / Top 100 tabs
Categorías
Usuarios
usuario:
Darse de alta
password:
Artistas más visitados
Publicidad
TOP acordes y tablaturas de Cky
:: Fat f - Cky


Estás en: Inicio > Letra C > Acordes y tablaturas de Cky > Disengage the simulator
Disengage the simulator
de Cky
Puntúa este acorde/tab:      
(0.2/5)
Reportar este acorde/tab
  Añadir a tus favoritos
  Imprimir

cky:disengage the simulater
tabed by michael engle (newdeal654@aol.com)
Tuned down one Half step (low to high: Eb Ab Db Gb Bb Eb)

Main Part 1

Guitar 1
F
----------------------------------
----------------------------------
----------------------------------
-3--3-3-3-----3-3-----------------
-3--3-3-3-----3-3-----------------
-1--1-1-1-----1-1-----------------

Guitar 2
----------------------------------
----------------------------------
----------------------------------
----------2-3-----------3-2---2---
------3---------------3-----3-----
-1--1---1-----1-1---1-------------

--------------------------------
--------------------------------
--------------------------------
----------2-3---------2-3-2---2-
------3-------------3-------3---
-1--1---1-----1-1---------------

With the error that's in my mind and in my soul

Riff 2
D            C           Bb           C
--------------------------------------------------
--------------------------------------------------
--------------------------------------------------
-----3-3/5-5-----5-5/7-7------3-3/5-5-----5-5/7-7-
-5-5---------3-3---------1-1----------3-3---------
--------------------------------------------------

I'm driving blind
I got a picture in the box that's bringing me to where I am

Riff 3
D            C           Bb           C
--------------------------------------------------
------------------------------1-1/3-3-----3-3/5-5-
--------------------------------------------------
-----3-3/5-5-----5-5/7-7------3-3/5-5-----5-5/7-7-
-5-5---------3-3---------1-1----------3-3---------
--------------------------------------------------

Yet the eyes are all affixed on you not me for driving blind
And the first time will be the last time that you believe

Chorus

F
---------------------------
---------------------------
-------------------1-0-----
----------3--1---1-----3-1-
-3---3--3------3-----------
-1---1--1------------------

Eb                  F
--------------------------------------------
--------------------------------------------
-----8-----8----10------------------1-0-----
---8-----8-----8---------3-3--1---1-----3-1-
-6-----6------6-----------------3-----------
--------------------1---1-------------------

You're falling as you decide
Face down the whole world wide
Before cannot be retrieved

Second Verse
(at first just play rhythm part)

From all the way up here there's no end
I'm flying high
But the worst is never first and there's a person that will set you straight
Cancelling a force within my brain for flying high
A simulator has been disengaged

Outro Riff
D            C           Bb           C
--------------------------------------------------
------------------------------1-1/3-3-----3-3/5-5-
--------------------------------------------------
-----3-3/5-5-----5-5/7-7------3-3/5-5-----5-5/7-7-
-5-5---------3-3---------1-1----------3-3---------
--------------------------------------------------

Bb           C            Bb           C
---------------------------------------------------
------1-1/3-3-----3-3/5-5------1-1/3-3-----3-3/5-5-
---------------------------------------------------
------3-3/5-5-----5-5/7-7------3-3/5-5-----5-5/7-7-
-1-1----------3-3---------1-1----------3-3---------
---------------------------------------------------

Play outro riff 3 times

		   
AcordesyTabs.com © 2008 Acordes y Tablaturas para guitarra. Tabs and Chords for guitar. Aviso Legal - Contacto
El uso de este sitio está sujeto a la aceptación de los términos y condiciones (39 usuarios online)