tablaturas, partituras y acordes para guitarra
Busca por banda/artista:
 
y/o título de la canción:
A B C D E F G H I J K L M N O P Q R S T U V W X Y Z 0 1 2 3 4 5 6 7 8 9 / Top 100 tabs
Categorías
Usuarios
usuario:
Darse de alta
password:
Artistas más visitados
Publicidad
TOP acordes y tablaturas de Smashing pumpkins


1979
de Smashing pumpkins
Puntúa este acorde/tab:      
(0.5/5)
Reportar este acorde/tab
  Añadir a tus favoritos
  Imprimir


Artist:Smashing Pumpkins
Track:1979
Album:Mellon Collie and The Infinite Sadness
          
                      E  A  D  G  B  e
tune down 1/2 a step: Eb Ab C# F# Bb eb

Chords:
Asus2 X0220X
F#m   244222
A     X02220
E     022100
B     X24442
C#m   X46654

intro/main riff
e|--------------------------------------------------------|
B|-------------------------------0-0-0-0-0-0-0-0-0-0-0-0--| 
G|-8-8-8-8-8-8-9--4-4-4-4-4-4-4--2-2-2-2-2-2-2-2-2-2-2-2--|   
D|-------------------------------2-2-2-2-2-2-2-2-2-2-2-2--|   
A|-6-6-6-6-6-6-7--2-2-2-2-2-2-2--0-0-0-0-0-0-0-0-0-0-0-0--| 
E|-0-0-0-0-0-0-0--0-0-0-0-0-0-0---------------------------|                                

play before the Asus2 (before each line starting on Asus2)
listen to CD to get it right.



Asus2
Shakedown 1979,

Asus2                            
cool kids never have the time

     Asus2                      F#m             B           
on a live wire right up off the street, you and I should meet

Asus2                            
junebug skipping like a stone

         Asus2                                      
with the headlights pointed at the dawn

Asus2                          F#m           B
we were sure we'd never see an end to it all

    E            A                          E
and I don't even care to shake these zipper blues


             A                              E              A
and we don't know just where our bones will rest to dust I guess

                  F#m           B
forgotten and absorbed into the earth below

                                       
e|----------------------------------------------------------|
B|-----------------------------0-0-0-0-0-0-0-0-0-0-0-0-0-0--|
G|-8-8-8-8-8-9--4-4-4-4-4-4-4--2-2-2-2-2-2-2-2-2-2-2-2-2-2--|
D|-----------------------------2-2-2-2-2-2-2-2-2-2-2-2-2-2--|
A|-6-6-6-6-6-7--2-2-2-2-2-2-2--0-0-0-0-0-0-0-0-0-0-0-0-0-0--|
E|-0-0-0-0-0-0--0-0-0-0-0-0-0-------------------------------|

   
e|----------------------------|
B|----------------------------|
G|-8-8-8-8-8-9--4-4-4-4-4-4-4-|
D|----------------------------|
A|-6-6-6-6-6-7--2-2-2-2-2-2-2-|
E|-0-0-0-0-0-0--0-0-0-0-0-0-0-|
Asus2             
double cross the vacant and the bored

Asus2                                          
they're not sure just what we have in store

Asus2                 F#m          A
morphine city slippin dues down to see

     E             A                      E 
that we don't even care as restless as we are

            A                              E
we feel the pull in the land of a thousand guilts

             A                  B
and poured cement, lamented and assured

B                  C#m     A
to the lights and towns below

B               C#m      A
faster than the speed of sound

B              C#m          A              
faster than we thought we'd go, 

F#m         B
beneath the sound of hope


Asus2                           
Justine never knew the rules

Asus2                                       
hung down with the freaks and the ghouls

Asus2                             
no apologies ever need be made

Asus2                      F#m        B
I know you better than you fake it to see 

     E             A                          E
that we don't even care to shake these zipper blues

             A                              E               A
and we don't know just where our bones will rest, to dust I guess

                  F#m       B          
forgotten and absorbed into earth below

Asus2                                
the street heats the urgency of now

Asus2                          E
as you can see there's no one around

		   
AcordesyTabs.com © 2008 Acordes y Tablaturas para guitarra. Tabs and Chords for guitar. Aviso Legal - Contacto
El uso de este sitio está sujeto a la aceptación de los términos y condiciones (25 usuarios online)