tablaturas, partituras y acordes para guitarra
Busca por banda/artista:
 
y/o título de la canción:
A B C D E F G H I J K L M N O P Q R S T U V W X Y Z 0 1 2 3 4 5 6 7 8 9 / Top 100 tabs
Categorías
Usuarios
usuario:
Darse de alta
password:
Artistas más visitados
Publicidad
TOP acordes y tablaturas de Lynyrd Skynyrd


Estás en: Inicio > Letra L > Acordes y tablaturas de Lynyrd Skynyrd > Free Bird Correct Main Riff
Free Bird Correct Main Riff
de Lynyrd Skynyrd
Puntúa este acorde/tab:      
(0.3/5)
Reportar este acorde/tab
  Añadir a tus favoritos
  Imprimir
Title: Free Bird
Band: lynyrd skynyrd
I have seen alot of people tab this song and none of them are completely
correct. But this one is.

INTRO  strum these cords once slowly
---3-----------0-----0-----x-----0-----2
---0-----------0-----0-----1-----1-----3
---0-----------0-----0-----3-----0-----2
---0-----------2-----2-----4-----2-----0
---2-----------2-----2-----4-----3------
---3-----2-----0-----0-----1------------

----------------------------------------------------------------------
----------------------------------------------------------------------
---7/12-----11/12-11~~~~~~~12-12/11/9/7/9/11---7/9----9/7-------------
-----------------------------------------------------------9--9/10----
----------------------------------------------------------------------
----------------------------------------------------------------------

----------------------------------------------------------------------
----------------------------------------------------------------------
10-10-10/9-------------4-5---7--7/5/7----19/17----18/19------11/12----
-----------10-------/5-------------------------19---------------------
--------------10------------------------------------------------------
----------------------------------------------------------------------

----------------------------------------------------------------------
----------------------------------------------------------------------
---12/11/9---9/4--4/9/7---------10--10/9------------4-5--7--7/5/7-----
------------------------9-9/10-----------10------/5-------------------
--------------------------------------------10------------------------
----------------------------------------------------------------------

----------------------------------------------------------------------
----------------------------------------------------------------------
---7/6---7----9/12-------------7/9-----9/8------------------4-5/---7--
-------7----7------------------------------9-9/10-----1/2/5-----------
----------------------------------------------------------------------
----------------------------------------------------------------------

----------------------------------------------------------------------
----------------------------------------------------------------------
---7/6/7---7/19--19/17----18/19~~~19/11/12~~~~~~~~--------------------
-----------------------19---------------------------------------------
----------------------------------------------------------------------
----------------------------------------------------------------------

Now all that you really do is play this over.
Davy S.
		   
AcordesyTabs.com © 2008 Acordes y Tablaturas para guitarra. Tabs and Chords for guitar. Aviso Legal - Contacto
El uso de este sitio está sujeto a la aceptación de los términos y condiciones (29 usuarios online)