tablaturas, partituras y acordes para guitarra
Busca por banda/artista:
 
y/o título de la canción:
A B C D E F G H I J K L M N O P Q R S T U V W X Y Z 0 1 2 3 4 5 6 7 8 9 / Top 100 tabs
Categorías
Usuarios
usuario:
Darse de alta
password:
Artistas más visitados
Publicidad
TOP acordes y tablaturas de Lynyrd Skynyrd


Estás en: Inicio > Letra L > Acordes y tablaturas de Lynyrd Skynyrd > Free Bird Intro
Free Bird Intro
de Lynyrd Skynyrd
Puntúa este acorde/tab:      
(0.6/5)
Reportar este acorde/tab
  Añadir a tus favoritos
  Imprimir
It took me about three months to find this song on another site, so i decided to
one as well....hope you enjoy....any questions or comments email: aerohead_69@ho



INTRO/VERSE CHORDS: G  D  Em  F  E  D

INTRO:
E-------------------------------------------------------------------------------
B--3/8--7/8--7---8-8/7/5--3/5--5/4-----------6-6-6/5----------------------------
G------------------------------------4--4/5-----------5--------7-7/5/7--/19/18--
D--------------------------------------------------------5-5/7-----------------1
A-------------------------------------------------------------------------------
E-------------------------------------------------------------------------------
                                        
                                       
Repeat but watch for a change with the..................--4-5--7/5/7--    
                                                                                
                                                             here   
E-------------------------------------------------------------------------------
B--3/8--7/8--7---8-8/7/5--3/5--5/4-----------6-6-6/5----------------------------
G------------------------------------4--4/5-----------5---4-5-7/5/7--9/7-7/9-/19
D-------------------------------------------------------5-----------------------
A-------------------------------------------------------------------------------
E-------------------------------------------------------------------------------


enjoy

aerohead
		   
AcordesyTabs.com © 2008 Acordes y Tablaturas para guitarra. Tabs and Chords for guitar. Aviso Legal - Contacto
El uso de este sitio está sujeto a la aceptación de los términos y condiciones (27 usuarios online)