tablaturas, partituras y acordes para guitarra
Busca por banda/artista:
 
y/o título de la canción:
A B C D E F G H I J K L M N O P Q R S T U V W X Y Z 0 1 2 3 4 5 6 7 8 9 / Top 100 tabs
Categorías
Usuarios
usuario:
Darse de alta
password:
Artistas más visitados
Publicidad
TOP acordes y tablaturas de Lynyrd Skynyrd


Estás en: Inicio > Letra L > Acordes y tablaturas de Lynyrd Skynyrd > Free Bird Solo Easy Version
Free Bird Solo Easy Version
de Lynyrd Skynyrd
Puntúa este acorde/tab:      
(0.6/5)
Reportar este acorde/tab
  Añadir a tus favoritos
  Imprimir
Free Bird by Lynyrd Skynyrd (9:59 Studio Version)
Tabbed by Sean Coleman   (rocknguitarist@yahoo.com)

Verse: G D/F# Em F C D
Chorus: C G D

Solo Chords: G Bflat C

/=slide
*=bend
&=pull-off

Opening riff at 4:57

--------15-----------15--------------------------15-----------------------------
--12/15----15--18*20----18*20--18*20--18--15--18---18--15--18*20------
--------------------------------------------------------------------------------
--------------------------------------------------------------------------------
--------------------------------------------------------------------------------
--------------------------------------------------------------------------------

-------------------------------18---------18--------18--------18----------------
--18--15--18*20--18*20--18*20------18*20------18*20-----18*20----208-
--------------------------------------------------------------------------------
--------------------------------------------------------------------------------
---------------------------------(Repeat)---------------------------------------
--------------------------------------------------------------------------------

--------------------------------------------------------------------------------
--18*20-X8----18-15-18-15-18-15-18-15-18-15-18-15-18-15-18-15-18-15-18
--------------------------------------------------------------------------------
---------------(Fast Tapping)---------------------------------------------------
--------------------------------------------------------------------------------
--------------------------------------------------------------------------------

-------15------------------15---------------------------------------------------
--15-------15---18*20----------18*20------------18&15----------------------
--------------------------------------------17----------------------------------
---------------------------(Repeat Above riff (2) 32nd notes 15 times)--
--------------------------------------------------------------------------------
--------------------------------------------------------------------------------

Another popular riff (1) at 5:43:

-----------------------------------------------------------------
-----------------------------------------------------------------
----15----------------------------------------------------------
---------17&15------------------------------------------------
----------------17----------------------------------------------
-----------------------------------------------------------------

Riff at 5:56:

-----------------------------------------------------------------
-----------------------------------------------------------------
-----17*19&15-----------------------------------------------
----------------17&15-----------------------------------------
-----------------------------------------------------------------
-----------------------------------------------------------------


Fast picking beginning at 6:34 is repetitions of riffs 1, then 2, 
then this riff at 6:53:


---18&15------------------------------------------------------
---------15-----------------------------------------------------
-----------------------------------------------------------------
-----------------------------------------------------------------
-----------------------------------------------------------------
-----------------------------------------------------------------

Then, going up the scale, starting at 7:50:


---------------------------------15---18----15--(Repeat 8)-------
----15---18----15-(Repeat 8)-------------------------------------
------------------------------------------------------------------------
-----------------------------------------------------------------------
-----------------------------------------------------------------------
-----------------------------------------------------------------------


----22---19----22-(Repeat 16)------------------------------------
------------------------------------------------------------------------
------------------------------------------------------------------------
------------------------------------------------------------------------
------------------------------------------------------------------------

And, the popular riff at 8:15:

--------------------------------------------------------------------------------
--------------------------------------------------------------------------------
------17--15-------15-------17----15------15-17------17------15---17-----15--
----------------17--------17-------------17---------17------17------------17----
--------------------------------------------------------------------------------
--------------------------------------------------------------------------------

-----------------------------------------------------------------
-----------------------------------------------------------------
---17------15--17--15----------------------------------------
-------17-------------------------------------------------------
-----------------------------------------------------------------
-----------------------------------------------------------------

Riff 2 Repeats at 8:24

At 8:34:

-----------------------------------------------------------------
-----------------------------------------------------------------
-------------------15-------------------------------------------
---17---15----17--------17&15-----------------------------
-----------------------------------------------------------------
-----------------------------------------------------------------

At 9:00:

------15---------------15--------------------------------------------
------------18----15--------18---15--------------------------------
-------------------------------------15-------17--15----------------
-----------------------------------------17----------17--15---------
------------------------------------------------------------15--------
--------------------------------------------------------------18--15-
		   
AcordesyTabs.com © 2008 Acordes y Tablaturas para guitarra. Tabs and Chords for guitar. Aviso Legal - Contacto
El uso de este sitio está sujeto a la aceptación de los términos y condiciones (36 usuarios online)