tablaturas, partituras y acordes para guitarra
Busca por banda/artista:
 
y/o título de la canción:
A B C D E F G H I J K L M N O P Q R S T U V W X Y Z 0 1 2 3 4 5 6 7 8 9 / Top 100 tabs
Categorías
Usuarios
usuario:
Darse de alta
password:
Artistas más visitados
Publicidad
TOP acordes y tablaturas de Lynyrd Skynyrd


Free Bird
de Lynyrd Skynyrd
Puntúa este acorde/tab:      
(0.3/5)
Reportar este acorde/tab
  Añadir a tus favoritos
  Imprimir
ARTIST: LYNYRD SKYNYRD
SONG: FREE BIRD
TABBED BY: JOHN LEADMAN


I LOVE THIS SONG. I AM INCLUDING IN THIS TAB BITS AND PIECES I KNOW TO GET YOU  
THIS TOOK ME A WHILE TO GET IT RIGHT BUT HERE IT IS ENJOY

                THIS IS PLAYED BY GUITAR 1 
PLAY    2x    1x   7-8x   6x    6X   (?)
E/------3-----2-----0-----1-----0-----2----]
B/------0-----3-----0-----1-----1-----3----]
G/------0-----2-----0-----2-----0-----2----]
D/------0-----0-----2-----3-----2-----0----]
A/------2-----0-----2-----0-----3-----0----]
E/------3-----2-----0-----0-----0-----0----]

(BOTH GUITAR 1&2 ARE PLAYING AT THE SAME TIME)

                THIS IS PLAYED BY GUITAR 2
PLAY    1x    1x    2x    2x    2x    8x
E/------3-----x-----0-----1-----0-----3----]
B/------0-----x-----0-----1-----1-----3----]
G/------0-----x-----0-----2-----0-----2----]
D/------0-----x-----2-----3-----2-----x----]
A/------2-----x-----2-----3-----3-----x----]
E/------3-----2-----0-----1-----0-----x----]

THIS IS THE MOST FAMOUS PART OF THE SONG IT IS PLAYED AFTER GUITAR 1&2 STOPS.
IT IS PLAYED WITH A SLIDE BUT IT SOUNDS GOOD WITHOUT ONE
E/---------------------------------------------------------------------------
B/-----3--8--7--8--7--8--8--7--5--3--5--7--3--5--5--3--------6--6--6--5------
G/-----------------------------------------------------4--5--------------5---
D/--------------------------------------------------------------------------5
A/---------------------------------------------------------------------------
E/---------------------------------------------------------------------------

CONTINUED

E/----------------]
B/----------------]
G/-----4--5--7----]
D/--5-------------]
A/----------------]
E/----------------]


THIS IS ALL I KNOW AND I GUARANTEE ONCE YOU GET THIS SONG YOU WILL PLAY IT FOR H
BECAUSE IT IS A GREAT SONG THERE IS A LOT OF LITTLE PIECES I DO NOT KNOW AND IF 



		   
AcordesyTabs.com © 2008 Acordes y Tablaturas para guitarra. Tabs and Chords for guitar. Aviso Legal - Contacto
El uso de este sitio está sujeto a la aceptación de los términos y condiciones (27 usuarios online)