tablaturas, partituras y acordes para guitarra
Busca por banda/artista:
 
y/o título de la canción:
A B C D E F G H I J K L M N O P Q R S T U V W X Y Z 0 1 2 3 4 5 6 7 8 9 / Top 100 tabs
Categorías
Usuarios
usuario:
Darse de alta
password:
Artistas más visitados
Publicidad
TOP acordes y tablaturas de Lynyrd Skynyrd


Free Bird
de Lynyrd Skynyrd
Puntúa este acorde/tab:      
(0.2/5)
Reportar este acorde/tab
  Añadir a tus favoritos
  Imprimir
The beginning Chords are easy. They are G,D,Cmag7 ,F,C,and D again.
Here is intro.THis first part is rite after he plays the last chord.
You wanna play the 2,3,3 part three times. Good luck

E----3---------------------------------------------------------
B------3-------------------------------------------------------
G-2----------/12----11h12p11---11 9 7--9--11---9p7----4 5------
D--------------------------------------------------------------
A--------------------------------------------------------------
E--------------------------------------------------------------

E--------------------------------------------------------------
B--------------------------------------------------------------
G-10 10 10---9-5-4-5-7-----------------------------------------
D--------------------------------------------------------------
A--------------------------------------------------------------
E--------------------------------------------------------------
		   
AcordesyTabs.com © 2008 Acordes y Tablaturas para guitarra. Tabs and Chords for guitar. Aviso Legal - Contacto
El uso de este sitio está sujeto a la aceptación de los términos y condiciones (33 usuarios online)