tablaturas, partituras y acordes para guitarra
Busca por banda/artista:
 
y/o título de la canción:
A B C D E F G H I J K L M N O P Q R S T U V W X Y Z 0 1 2 3 4 5 6 7 8 9 / Top 100 tabs
Categorías
Usuarios
usuario:
Darse de alta
password:
Artistas más visitados
Publicidad
TOP acordes y tablaturas de Misc


Estás en: Inicio > Letra M > Acordes y tablaturas de Misc > Kool guitar riff
Kool guitar riff
de Misc
Puntúa este acorde/tab:      
(0.3/5)
Reportar este acorde/tab
  Añadir a tus favoritos
  Imprimir

Check out this kool riff i made up

e|-----------------------------------------------------------|
B|-----------------------------------------------------------|
G|-----------------------------------------------------------|
D|-0-0---0-0-0-3-3-0-0--0-0-0-3-0-3-3--3-3-3-5-5-3-3--3-3-3-5|
A|-----------------------------------------------------------|
E|-----------------------------------------------------------|

continued...

e|----------------|
B|----------------|
G|----------------|
D|-0-0-3-0-0-0-0-3|
A|----------------|
E|----------------|

Heavy Riff:

e|-----------------------------------------------------------|
B|-----------------------------------------------------------|
G|-----------------------------------------------------------|
D|-2-2---2-2-2-3-3-2-2--2-2-2-3-2-5-5--5-5-5-7-7-5-5--5-5-5-7|
A|-2-2---2-2-2-3-3-2-2--2-2-2-3-2-5-5--5-5-5-7-7-5-5--5-5-5-7|
E|-0-0---0-0-0-3-3-0-0--0-0-0-3-0-3-3--3-3-3-5-5-3-3--3-3-3-5|

E|----------------|
B|----------------|
G|----------------|
D|-2-2-3p2-2-2-3-2|
A|-2-2-3p2-2-2-3-2|
E|-0-0-3p0-0-0-3-0|


Any Questions Email me a powerdogg90@hotmail.com (JAKE)

		   
AcordesyTabs.com © 2008 Acordes y Tablaturas para guitarra. Tabs and Chords for guitar. Aviso Legal - Contacto
El uso de este sitio está sujeto a la aceptación de los términos y condiciones (24 usuarios online)