tablaturas, partituras y acordes para guitarra
Busca por banda/artista:
 
y/o título de la canción:
A B C D E F G H I J K L M N O P Q R S T U V W X Y Z 0 1 2 3 4 5 6 7 8 9 / Top 100 tabs
Categorías
Usuarios
usuario:
Darse de alta
password:
Artistas más visitados
Publicidad
TOP acordes y tablaturas de Lynyrd Skynyrd


Estás en: Inicio > Letra L > Acordes y tablaturas de Lynyrd Skynyrd > Needle And The Spoon
Needle And The Spoon
de Lynyrd Skynyrd
Puntúa este acorde/tab:      
(0.3/5)
Reportar este acorde/tab
  Añadir a tus favoritos
  Imprimir
                          Lynyrd Skynyrd
                     The Needle And The Spoon

---------------------------------------|----------------------------------
----3--3-------------------------------|----3--3--------------------------
--------------0------------------------|---------------0-----4b-2---------
-0----------0---0--3-3b--0--0----------|-0-----------0---0--------4b-0----
----------3-------------------0h2-2h3--|-----------3----------------------
---------------------------------------|----------------------------------

------10--10-------7------10---------10--10-------7-------14--------10--10------
---10--------10------10-----------10--------10------10-----------10--------10---
-7--------------7-------7-------7--------------7-------7-------7--------------7-
--------------------------------------------------------------------------------
--------------------------------------------------------------------------------
--------------------------------------------------------------------------------

Verse
--------------------------------------
--------------------------------------
-7--75--5-5-5/10--10-10--7--7--------
-7--75--5-5-5/10--10-10--7--7--7/10--
-5--53--3-3-3/8---8--8---5--5--7/10--
--------------------------------5/8---
(With the leadguitar playing the intro, 
 without the ending of course)

Chorus
---------------------------
---------------------------
-7----7-10----10-5----5----
-7----7-10----10-5----5-5--
-5----5-8-----8--3----3-5--
------------------------3--


/metal_up_your_ass@2di4.com
		   
AcordesyTabs.com © 2008 Acordes y Tablaturas para guitarra. Tabs and Chords for guitar. Aviso Legal - Contacto
El uso de este sitio está sujeto a la aceptación de los términos y condiciones (37 usuarios online)