tablaturas, partituras y acordes para guitarra
Busca por banda/artista:
 
y/o título de la canción:
A B C D E F G H I J K L M N O P Q R S T U V W X Y Z 0 1 2 3 4 5 6 7 8 9 / Top 100 tabs
Categorías
Usuarios
usuario:
Darse de alta
password:
Artistas más visitados
Publicidad
TOP acordes y tablaturas de Lynyrd Skynyrd


Estás en: Inicio > Letra L > Acordes y tablaturas de Lynyrd Skynyrd > Simple Man Correct Intro
Simple Man Correct Intro
de Lynyrd Skynyrd
Puntúa este acorde/tab:      
(0.1/5)
Reportar este acorde/tab
  Añadir a tus favoritos
  Imprimir
This is the real way you are supossed to play the intro from
simple man............



E------------------------------------------------------------3-------
A-------------1-------------------------------0--------0-------1-----
D-------0-------0---0---------0---------2-------2--2-----2-----------
G---------2-------2-----0-------0---0-----2-------2--------2---------
B-0-2-3-----3-------------2-------2---0-----0--------0-------------
E---------------------3-----3-----------------------------------------
           4 TIMES THEN:


----------------------------------------------------3---------
-----------1----------------------------1-----1-------1----------
-------0-----0---2-------0----------2-----2-----2-------------------
---------2-----2-----0-----0---0------2-----2-----2------------------
-0-2-3-----------------2-----2---0----------------------0-2-3---------
-------------------3------------------------------------------

          REPEAT^

ONCE YOU GET THE HANG OF IT YOULL NEVER STOP PLAYING IT
 SWEAR TO GOD!!!!!!!!!!!!!!!!!!!!!!!!!!!!!!!!!!!!!!!!!!
		   
AcordesyTabs.com © 2008 Acordes y Tablaturas para guitarra. Tabs and Chords for guitar. Aviso Legal - Contacto
El uso de este sitio está sujeto a la aceptación de los términos y condiciones (47 usuarios online)