tablaturas, partituras y acordes para guitarra
Busca por banda/artista:
 
y/o título de la canción:
A B C D E F G H I J K L M N O P Q R S T U V W X Y Z 0 1 2 3 4 5 6 7 8 9 / Top 100 tabs
Categorías
Usuarios
usuario:
Darse de alta
password:
Artistas más visitados
Publicidad
TOP acordes y tablaturas de Lynyrd Skynyrd


Simple Man
de Lynyrd Skynyrd
Puntúa este acorde/tab:      
(0.1/5)
Reportar este acorde/tab
  Añadir a tus favoritos
  Imprimir
Song: Simple Man
Artist: Lynard Skynard
Tabbed by: Jake B. Livingston  (Gibson)   powerdogg90@hotmail.com


The other tab for this song is correct mostly bu t made a few changes
Play the intro as it is in the other tab 'cause that is right. But 
this is the correct way to play the part when the electric guitar 
kicks in.

    --------|-----------------------|------------------------|
    --------|-----------------------|------------------------|
    --------|.--5-------------------|------------------------|
    --------|.--5-------------------|--5---------------------|
    --0--2--|---3-----5/7/5-0-------|--5------5/7/5----------|
    --------|-----------------------|--3-----------------3---|



            |--------------------------|
            |--------------------------|
            |--------------------------|
            |--7-----------5-----5/7---|
            |--7-----------5-----5/7---|
            |--5--------0--3--0--3/5---|

Enjoy!!!
		   
AcordesyTabs.com © 2008 Acordes y Tablaturas para guitarra. Tabs and Chords for guitar. Aviso Legal - Contacto
El uso de este sitio está sujeto a la aceptación de los términos y condiciones (35 usuarios online)