tablaturas, partituras y acordes para guitarra
Busca por banda/artista:
 
y/o título de la canción:
A B C D E F G H I J K L M N O P Q R S T U V W X Y Z 0 1 2 3 4 5 6 7 8 9 / Top 100 tabs
Categorías
Usuarios
usuario:
Darse de alta
password:
Artistas más visitados
Publicidad
TOP acordes y tablaturas de Bon jovi


Estás en: Inicio > Letra B > Acordes y tablaturas de Bon jovi > Livin On a Prayer
Livin On a Prayer
de Bon jovi
Puntúa este acorde/tab:      
(0.6/5)
Reportar este acorde/tab
  Añadir a tus favoritos
  Imprimir
Guitar
                                                                               
E||------------------|------------------|------------------|------------------|
B||------------------|------------------|------------------|------------------|
G||------------------|------------------|------------------|------------------|
D||------------------|------------------|------------------|------------------|
A||------------------|------------------|------------------|------------------|
E||------------------|------------------|------------------|------------------|


                                                                        
------------------|--------------|------------------|------------------|
------------------|--------------|------------------|------------------|
------------------|--------------|------------------|------------------|
------------------|--------------|------------------|------------------|
------------------|--------------|------------------|------------------|
------------------|--------------|------------------|------------------|


                                                                  
------------------|-------------------|--------------------------|
------------------|-------------------|--------------------------|
------------------|-------------------|--------------------------|
------------------|-------------------|--------------------------|
------------------|----------------5--|-----7-----5-----------5--|
------------------|-------------------|--0-----0-----0--0--7-----|


                                                      
--------------------------|--------------------------|
--------------------------|--------------------------|
--------------------------|--------------------------|
--------------------------|--------------------------|
-----7-----5-----------5--|-----7-----5-----------5--|
--0-----0-----0--0--7-----|--0-----0-----0--0--7-----|


                                                      
--------------------------|--------------------------|
--------------------------|--------------------------|
--------------------------|--------------------------|
--------------------------|--------------------------|
-----7-----5-----------5--|-----7-----5-----------5--|
--0-----0-----0--0--7-----|--0-----0-----0--0--7-----|


                                                      
--------------------------|--------------------------|
--------------------------|--------------------------|
--------------------------|--------------------------|
--------------------------|--------------------------|
-----7-----5-----------5--|-----7-----5-----------5--|
--0-----0-----0--0--7-----|--0-----0-----0--0--7-----|


                                                      
--------------------------|--------------------------|
--------------------------|--------------------------|
--------------------------|--------------------------|
--------------------------|--------------------------|
-----7-----5-----------5--|-----7-----5-----------5--|
--0-----0-----0--0--7-----|--0-----0-----0--0--7-----|


                                                      
--------------------------|--------------------------|
--------------------------|--------------------------|
--------------------------|--------------------------|
--------------------------|--------------------------|
-----7-----5-----------5--|-----7-----5-----------5--|
--0-----0-----0--0--7-----|--0-----0-----0--0--7-----|


                                                      
--------------------------|--------------------------|
--------------------------|--------------------------|
--------------------------|--------------------------|
--------------------------|--------------------------|
-----7-----5-----------5--|-----7-----5-----------5--|
--0-----0-----0--0--7-----|--0-----0-----0--0--7-----|


                                                      
--------------------------|--------------------------|
--------------------------|--------------------------|
--------------------------|--------------------------|
--------------------------|--------------------------|
-----7-----5-----------5--|-----7-----5-----------5--|
--0-----0-----0--0--7-----|--0-----0-----0--0--7-----|


                                                                   
--------------------------|-------------------|-------------------|
--------------------------|-------------------|-------------------|
--------------------------|-------------------|-------------------|
--------------------------|-------------------|--0----------------|
-----7-----5-----------5--|--3----------------|-------------------|
--0-----0-----0--0--7-----|-------------------|-------------------|


                                                      
--------------------------|--------------------------|
--------------------------|--------------------------|
--------------------------|--------------------------|
--------------------------|--------------------------|
-----7-----5-----------5--|-----7-----5-----------5--|
--0-----0-----0--0--7-----|--0-----0-----0--0--7-----|


                                                      
--------------------------|--------------------------|
--------------------------|--------------------------|
--------------------------|--------------------------|
--------------------------|--------------------------|
-----7-----5-----------5--|-----7-----5-----------5--|
--0-----0-----0--0--7-----|--0-----0-----0--0--7-----|


                                                                          
--------------------------|--------------------------|-------------------|
--------------------------|--------------------------|-------------------|
--------------------------|--------------------------|-------------------|
--------------------------|--------------------------|-------------------|
-----7-----5-----------5--|-----7-----5-----------5--|--3----------------|
--0-----0-----0--0--7-----|--0-----0-----0--0--7-----|-------------------|


                                                                          
-------------------|--------------------------|--------------------------|
-------------------|--------------------------|--------------------------|
-------------------|--------------------------|--------------------------|
--0----------------|--------------------------|--------------------------|
-------------------|-----7-----5-----------5--|-----7-----5-----------5--|
-------------------|--0-----0-----0--0--7-----|--0-----0-----0--0--7-----|


                                                                         
-----------------------|-----------------------|------------------------|
-----------------------|-----------------------|------------------------|
--5-------7------------|--7----7/---9----------|--5-------7--7----------|
--5-------7------------|--7----7/---9----------|--5-------7--7----------|
--3-------5------------|--5----5/---7----------|--3-------5--5----------|
-------0---------0--0--|--5--------------x--0--|-------x----------x--0--|


                                                                         
-----------------------|-----------------------|------------------------|
-----------------------|-----------------------|------------------------|
--7----7----9----------|--5-------7------------|--7----7/---9----7----5-|
--7----7----9----------|--5-------7------------|--7----7/---9----7----5-|
--5----5----7----x--x--|--3-------5------0--0--|--5----5/---7----5----3-|
--5--------------x--0--|-------0---------------|--5-----------------x-x-|


                                                                     
-------------------|------------------------|-----------------------|
-------------------|------------------------|-----------------------|
--5----------------|--7---7---7--7----------|----------5---------5--|
--5----------------|--7---7---7--7----------|----------5---------5--|
--3----------------|--5---5---5--5----------|--2-------3---------3--|
-------------------|------------------12/---|--0----0---------x-----|


                                                                    
---------------------|-----------------------|---------------------|
---------------------|-----------------------|---------------------|
--7------------------|----------5------------|--7------------------|
--7------------0-----|--5-------5------5-----|--7------------x-----|
--5------------0-----|--5-------3------3--0--|--5------------x--0--|
------------------0--|--3----x---------------|---------------------|


                                                                      
-----------------------|---------------------|-----------------------|
-----------------------|---------------------|-----------------------|
----------5------------|--7------------------|----------5------------|
--2-------5---------5--|--7------------------|--5-------5------------|
--2----0--3------x--3--|--5------------x-----|--5----x--3------5--5--|
--0--------------------|------------------0--|--3--------------------|


                                                                          
-------------------|--------------------------|--------------------------|
-------------------|--------------------------|--------------------------|
--7----------------|--------------------------|--------------------------|
--7----------------|--------------------------|--------------------------|
--5----------------|-----7-----5-----------5--|-----7-----5-----------5--|
-------------------|--0-----0-----0--0--7-----|--0-----0-----0--0--7-----|


                                                      
--------------------------|--------------------------|
--------------------------|--------------------------|
--------------------------|--------------------------|
--------------------------|--------------------------|
-----7-----5-----------5--|-----7-----5-----------5--|
--0-----0-----0--0--7-----|--0-----0-----0--0--7-----|


                                                                             
--------------------------|--------------------------|----------------------|
--------------------------|--------------------------|----------------------|
--------------------------|--------------------------|--------14b-------14r-|
--------------------------|--------------------------|----------------------|
-----7-----5-----------5--|-----7-----5-----------5--|----------------------|
--0-----0-----0--0--7-----|--0-----0-----0--0--7-----|----------------------|


                                                                     
----------------------|------20b------------|-----------------------|
----------------------|---------------------|--20-17~---------------|
--14------------14/---|------------------0--|------------0/---------|
----------------------|---------------------|-----------------------|
----------------------|---------------------|-----------------------|
----------------------|---------------------|-----------------------|


                                                      
--------------------------|--------------------------|
--------------------------|--------------------------|
--------------------------|--------------------------|
--------------------------|--------------------------|
-----7-----5-----------5--|-----7-----5-----------5--|
--0-----0-----0--0--7-----|--0-----0-----0--0--7-----|


                                                      
--------------------------|--------------------------|
--------------------------|--------------------------|
--------------------------|--------------------------|
--------------------------|--------------------------|
-----7-----5-----------5--|-----7-----5-----------5--|
--0-----0-----0--0--7-----|--0-----0-----0--0--7-----|


                                                      
--------------------------|--------------------------|
--------------------------|--------------------------|
--------------------------|--------------------------|
--------------------------|--------------------------|
-----7-----5-----------5--|-----7-----5-----------5--|
--0-----0-----0--0--7-----|--0-----0-----0--0--7-----|


                                                                             
--------------------------|--------------------------|----------------------|
--------------------------|--------------------------|----------------------|
--------------------------|--------------------------|--5-------7--7--------|
--------------------------|--------------------------|--5-------7--7--------|
-----7-----5-----------5--|-----7-----5-----------5--|--3----x--5--5--------|
--0-----0-----0--0--7-----|--0-----0-----0--0--7-----|----------------------|


                                                                     
---------------------|-----------------------|----------------------|
---------------------|----------7------------|----------------------|
--7----7----9/-------|--5-------7------------|--7----7----9---------|
--7----7----9/-------|--5-------7------x-----|--7----7----9---------|
--5----5----7/-------|--3----5--5---------0--|--5----5----7------0--|
---------------------|-----------------------|----------------------|


                                                                   
-----------------------|----------------------|-------------------|
-----------------------|----------------------|-------------------|
--5-------7------------|--7----7/---9----7----|--5----------------|
--5-------7------------|--7----7/---9----7----|--5----------------|
--3----0--5------x--0--|--5----5/---7----5----|--3----------------|
-----------------------|----------------------|-------------------|


                                                                       
------------------------|-----------------------|---------------------|
------------------------|-----------------------|---------------------|
--7---7---7--7----------|----------5---------5--|--7------------------|
--7---7---7--7----------|--2-------5---------5--|--7------------------|
--5---5---5--5----------|--2-------3------x--3--|--5------------x-----|
------------------12/---|--0----0---------------|------------------0--|


                                                                     
-----------------------|--------------------|-----------------------|
-----------------------|--------------------|-----------------------|
----------5------------|--7-----------------|----------5------------|
--5-------5------------|--7------------7/---|--2-------5------------|
--5-------3------------|--5-----------------|--2-------3------x--0--|
--3----x--3------x--0--|--------------------|--0----x---------------|


                                                                  
---------------------|-----------------------|-------------------|
---------------------|-----------------------|-------------------|
--7------------------|----------5------------|--7----------------|
--7------------7/----|--5-------5------------|--7----------------|
--5------------------|--5----x--3------x--0--|--5----------------|
------------------0--|--3--------------------|-------------------|


                                                                      
----------------------|---------------------|------------------------|
----------------------|---------------------|------------------------|
--12------7------5----|---------------------|------------------------|
--12------7------5----|---------------------|-------------5--7--7b---|
----------------------|---------------------|--7--5--7~--------------|
----------------------|--------------12/-5--|------------------------|


                                                             
--------------------12-14--|--15----------------------------|
-----------------12--------|------15--12--13----15--15b-15r-|
---------------------------|--------------------------------|
--7------------------------|--------------------------------|
-----5--5~-----------------|--------------------------------|
---------------------------|--------------------------------|


                                                               
--------------------|-----------------------------------------|
------15~-----------|--x--x--12-12-12-12-13--x-x-12-----------|
--------------------|--x--12-12-12-x--x--14--x-x-11--x-11-11r-|
--------------------|--12-x--------x--x----------12-----------|
--------------------|-----------------------------------------|
--------------------|-----------------------------------------|


                                                            
---------------------12-14--|--15--------------------------|
------------------12--------|------15--12--13----12--------|
----------------------------|------------------------12~---|
----12----------------------|------------------------------|
--------12~-----------------|------------------------------|
----------------------------|------------------------------|


                                                                     
------------------------|-----------------------------15-17b--------|
--15b---15b-------15r---|-----------15-16-17-15-16-17---------------|
------------------------|--14-15-16---------------------------------|
------------------------|-------------------------------------------|
------------------------|-------------------------------------------|
------------------------|-------------------------------------------|


                                                                   
-----------------------|----------------------|-------------------|
-----------------------|----------------------|-------------------|
--5-------7------------|--7----7----9----7----|--5----------------|
--5-------7------------|--7----7----9----7----|--5----------------|
--3----x--5------x--0--|--5----5----7----5----|--3----------------|
-----------------------|----------------------|-------------------|


                                                                 
------------------|-----------------------|---------------------|
------------------|-----------------------|---------------------|
--7---7---7--7----|----------8------------|---------------------|
--7---7---7--7----|--5-------8------------|--3------------------|
--5---5---5--5----|--5-------6------x-----|--3------------------|
------------------|--3----x------------0--|--1------------1--1--|


                                                                       
-----------------------|----------------------|-----------------------|
-----------------------|----------------------|-----------------------|
----------8------------|----------------------|----------8------------|
--8-------8------------|--3-------------3-----|--5-------8------------|
--8-------6------x-----|--3-------------------|--5-------6------x-----|
--6----x------------0--|--1----------1-----1--|--3----x------------0--|


                                                                    
---------------------|-----------------------|---------------------|
---------------------|-----------------------|---------------------|
---------------------|----------8------------|---------------------|
--3------------------|--8-------8------------|--3------------------|
--3------------------|--8----0--6------x-----|--3------------------|
--1------------1--1--|--6-----------------0--|--1------------1--1--|


                                                                      
-----------------------|---------------------|-----------------------|
-----------------------|---------------------|-----------------------|
----------8------------|---------------------|----------8------------|
--5-------8------------|--3------------------|--8-------8------------|
--5-------6------x-----|--3------------------|--8-------6------x-----|
--3----x------------0--|--1------------1--1--|--6----x------------0--|


                                                                    
---------------------|-----------------------|---------------------|
---------------------|-----------------------|---------------------|
---------------------|----------8------------|---------------------|
--3------------------|--5-------8------------|--3------------------|
--3------------------|--5-------6------x-----|--3------------------|
--1------------1--0--|--3----x------------0--|--1------------1--1--|


                                                                      
-----------------------|---------------------|-----------------------|
-----------------------|---------------------|-----------------------|
----------8------------|---------------------|----------8------------|
--8-------8------------|--3------------------|--5-------8------------|
--8----0--6------x-----|--3------------------|--5-------6------x-----|
--6-----------------0--|--1------------1--1--|--3----x------------0--|


                                                                     
---------------------|-----------------------|----------------------|
---------------------|-----------------------|----------------------|
---------------------|----------8------------|----------------------|
--3------------------|--8-------8------------|--3-------------3-----|
--3------------------|--8-------6------x-----|--3-------------------|
--1------------1--1--|--6----x------------0--|--1----------1-----1--|


                                                                      
-----------------------|---------------------|-----------------------|
-----------------------|---------------------|-----------------------|
----------8------------|---------------------|----------8------------|
--5-------8------------|--3------------------|--8-------8------------|
--5-------6------x-----|--3------------------|--8----0--6------x-----|
--3----x------------0--|--1------------1--1--|--6-----------------0--|


                                                                    
---------------------|-----------------------|---------------------|
---------------------|-----------------------|---------------------|
---------------------|----------8------------|---------------------|
--3------------------|--5-------8------------|--3------------------|
--3------------------|--5-------6------x-----|--3------------------|
--1------------1--1--|--3----x------------0--|--1------------1--1--|


                                                                       
-----------------------|----------------------|-----------------------|
-----------------------|----------------------|-----------------------|
----------8------------|----------------------|----------8------------|
--8-------8------------|--3-------------3-----|--5-------8------------|
--8-------6------x-----|--3-------------------|--5-------6------x-----|
--6----x------------0--|--1----------1-----1--|--3----x------------0--|


                                                                    
---------------------|-----------------------|---------------------|
---------------------|-----------------------|---------------------|
---------------------|----------8------------|---------------------|
--3------------------|--8-------8------------|--3------------------|
--3------------------|--8----0--6------x-----|--3------------------|
--1------------1--1--|--6-----------------0--|--1------------1--1--|


                    
------------------||
------------------||
------------------||
------------------||
------------------||
------------------||		   
AcordesyTabs.com © 2008 Acordes y Tablaturas para guitarra. Tabs and Chords for guitar. Aviso Legal - Contacto
El uso de este sitio está sujeto a la aceptación de los términos y condiciones (23 usuarios online)