tablaturas, partituras y acordes para guitarra
Busca por banda/artista:
 
y/o título de la canción:
A B C D E F G H I J K L M N O P Q R S T U V W X Y Z 0 1 2 3 4 5 6 7 8 9 / Top 100 tabs
Categorías
Usuarios
usuario:
Darse de alta
password:
Artistas más visitados
Publicidad
TOP acordes y tablaturas de Green day


Estás en: Inicio > Letra G > Acordes y tablaturas de Green day > Since I Don´T Have You
Since I Don´T Have You
de Green day
Puntúa este acorde/tab:      
(0.1/5)
Reportar este acorde/tab
  Añadir a tus favoritos
  Imprimir
Guitarra Solo:
e  | ------------------------------------- | -------------------------- | 
B  | ------------------------------------- | -------------------------- | 
G  | -----19^----------------------------- | -----19^^----------------- | 
D  | ---------21b--19-21--19h21p19p17
~- | -----------21b--19-21----- | 
A  | --17--------------------------------- | -17----------------------- | 
E  | ------------------------------------- | -------------------------- | 

e  | ------------------- | -------------------------------------------- | 
B  | ------------------- | ---19^^--19--17h19p17
~------------------- | 
G  | ------------------- | ---------------------------17--15--19^^----- | 
D  | --19h21p19p17
~-- | -------------------------------------------- | 
A  | ------------------- | -------------------------------------------- | 
E  | ------------------- | -------------------------------------------- | 

e  | ------------------- | -------------------------------------------- | 
B  | ------------------- | -------------------------------------------- | 
G  | --17h19p17p15~-- | -------------------------------------------- | 
D  | ------------------- | ----15--h17p15---15--17/19--21-21-21-------- | 
A  | ------------------- | -------------------------------------------- | 
E  | ------------------- | -------------------------------------------- | 

e  | --------------------------------------------------------------- | 
B  | --------------------------------------------------------------- | 
G  | --------------------------------------------------------------- | 
D  | ---19-19-19---17b--15------------------------------------------ | 
A  | -----------------------19--17---------------------------------- | 
E  | --------------------------------------------------------------- | 


Tom:G

Intr: G , C , D , G , C , Cm , G , Cm , Am , D

     ( G , Em , Am , Cm , G , Em , G , C , Am , D )

 G             Cm        D
I don't have plans and schemes,
     G            Cm       D
And I don't have hopes and dreams.
 G             Cm          
I, I, I don't have anything,
 Am            D
Since I don't have you.
 G        Cm          D      
And I don't have fond desires,
     G       Cm         D
And I don't have happy hours.
 G       Cm
I don't have anything,
 Am         D
Since I don't have you.               

Happiness and I guess
 Am                G
I never will again.
 Am                       G
When you walked out on me,

In walked old misery,
 Am                        D
And she's been here since then.

SOLO: 
                   G   Cm Am D
(spoken) Yeah, we're fucked!
 G        Cm         D
I don't have love to share,
 G            Cm         D
And I don't have one who cares.
 G       Cm 
I don't have anything,
 Am            D
Since I don't have you.
 ( G , Em , Am , D )
You, you, you, oh, oh!
You, you, you, oh, oh!
You, you, you, oh, oh!
You, you, you, oh yeah! 		   
AcordesyTabs.com © 2008 Acordes y Tablaturas para guitarra. Tabs and Chords for guitar. Aviso Legal - Contacto
El uso de este sitio está sujeto a la aceptación de los términos y condiciones (33 usuarios online)