tablaturas, partituras y acordes para guitarra
Busca por banda/artista:
 
y/o título de la canción:
A B C D E F G H I J K L M N O P Q R S T U V W X Y Z 0 1 2 3 4 5 6 7 8 9 / Top 100 tabs
Categorías
Usuarios
usuario:
Darse de alta
password:
Artistas más visitados
Publicidad
TOP acordes y tablaturas de Lynyrd Skynyrd


Estás en: Inicio > Letra L > Acordes y tablaturas de Lynyrd Skynyrd > Sweet Home Alabama Solo Fills
Sweet Home Alabama Solo Fills
de Lynyrd Skynyrd
Puntúa este acorde/tab:      
(0.2/5)
Reportar este acorde/tab
  Añadir a tus favoritos
  Imprimir
#---------------------------------YOU BEST NOTE-------------------------------#
#This file is the author's own work and represents their interpretation of the#
#song. You may only use this file for private study, scholarship, or research.#
#-----------------------------------------------------------------------------#
#---------------------------------YOU BEST NOTE-------------------------------#
#This file is the author's own work and represents their interpretation of the#
#song. You may only use this file for private study, scholarship, or research.#
#-----------------------------------------------------------------------------#


Sweet Home Alabama Fills

Lynyrd Skynyrd

Transcribed by Brian S. (KT)



1st Guitar Solo : PH - pinch harmonic
            PH            PH     
e---15bvvv--15vv--14--------------10----------------------------------|
b---------------------15--15vvvv----10-13-11-10-----10----------------|
g-----------------------------------------------10-----10-12-12h14p12-|
d---------------------------------------------------------------------|
a---------------------------------------------------------------------|
e---------------------------------------------------------------------|

   light PH    PH
e--------------------------------------------------------------------|
b--------------------------------------------------------------------|
g--14b16vv--------12-14-12--14b16vv-----------12-14----12--14b15r14--|
d-----------12-14-------------------12--13-14-------14---------------|
a--------------------------------------------------------------------|
e--------------------------------------------------------------------|

e----------------------------------------------|
b----------------------------------------------|
g--12------------------------------------------|
d----12-14-12--12------------------------------|
a-----------------12-14b15r14------------------|
e-----------------------------15--10b11r10vvv--|


After 2nd solo :     ____________1___________
e--------------------------------------------------------------------|
b--------------------------------------------------------------------|
g----------7--7-----------5--5-------------0---12--14b16vv--14--12vvv|
d----------7--7-----------5--5-----------0---------------------------|
a---7-8-9--------9--5h7--------7--0-h2-----------------------------|
e--------------------------------------------------------------------|

 ___________2____________
   NH------------------ 
             depress bar
             -1/2     
e--------------^---------|
b--------------^---------|
g-----------5-(4)-(5)vvv-|
d------5-5---------------|
a--5---------------------|
e------------------------|
		   
AcordesyTabs.com © 2008 Acordes y Tablaturas para guitarra. Tabs and Chords for guitar. Aviso Legal - Contacto
El uso de este sitio está sujeto a la aceptación de los términos y condiciones (47 usuarios online)