tablaturas, partituras y acordes para guitarra
Busca por banda/artista:
 
y/o título de la canción:
A B C D E F G H I J K L M N O P Q R S T U V W X Y Z 0 1 2 3 4 5 6 7 8 9 / Top 100 tabs
Categorías
Usuarios
usuario:
Darse de alta
password:
Artistas más visitados
Publicidad
TOP acordes y tablaturas de Lynyrd Skynyrd


Estás en: Inicio > Letra L > Acordes y tablaturas de Lynyrd Skynyrd > Sweet Home Alabama Solo
Sweet Home Alabama Solo
de Lynyrd Skynyrd
Puntúa este acorde/tab:      
(0.1/5)
Reportar este acorde/tab
  Añadir a tus favoritos
  Imprimir

sweet home alabama
by:lynyrd skynyrd

v=vibrato
h=hammer on
b=bend
/=slide



e/-17--15--14-------------------------------------------------------------------
b/-------------15-15v-------13---12---------------------------------------------
g/----------------------14------------14---12-------------12--12-14--12---14b---
d/-----------------------------------------------14---12------------------------
a/------------------------------------------------------------------------------
E/------------------------------------------------------------------------------

e/------------------------------------------------------------------------------
b/------------------------------------------------------------------------------
g/-12---14---12---14b-------------12---14--12--14-----12--14b-------12----------
d/-----------------------12--14--------------------14-----------14-----14----12-
a/------------------------------------------------------------------------------
E/------------------------------------------------------------------------------

e/------------------------------------------------------------------------------
b/------------------------------------------------------------------------------
g/------------------------------------------------------------------------------
d/--9---h10--9------------------------------------------------------------------
a/---------------10-------------------------------------------------------------
E/--------------------10/9/10---------------------------------------------------

thanx to my guitar teacher mr. morrare
		   
AcordesyTabs.com © 2008 Acordes y Tablaturas para guitarra. Tabs and Chords for guitar. Aviso Legal - Contacto
El uso de este sitio está sujeto a la aceptación de los términos y condiciones (30 usuarios online)