tablaturas, partituras y acordes para guitarra
Busca por banda/artista:
 
y/o título de la canción:
A B C D E F G H I J K L M N O P Q R S T U V W X Y Z 0 1 2 3 4 5 6 7 8 9 / Top 100 tabs
Categorías
Usuarios
usuario:
Darse de alta
password:
Artistas más visitados
Publicidad
TOP acordes y tablaturas de Lynyrd Skynyrd


Tuesdays Gone
de Lynyrd Skynyrd
Puntúa este acorde/tab:      
(0.3/5)
Reportar este acorde/tab
  Añadir a tus favoritos
  Imprimir




Tuesday's Gone
Lynard Skynard
Pronounced...
or Happy Gilmore (ha, ha)

1|---------------------------------------------------------------
2|---------------------------------------------------------------
3|---------------------------------------------------------------
4|---7b8b7b8----7-----7b8b7b8b7------7b8b7b8b7b8b7--4--6-7-------
5|--------------------------------7------------------------6-5-6-
6|---------------------------------------------------------------

1|---------------------------------------------------------------
2|---------------------------------------------------------------
3|--------------7b8b7b8b7----7-----7b8b7------------7-9-----12~~-
4|----6-5-7-9------------------------------7---7-9---------------
5|---------------------------------------------------------------
6|---------------------------------------------------------------


These are the basic notes. If you experiment with it, you can 
probobly make it sound more like the CD version, but I just play
it like this. The other chords and words on this site are correct, 
and if you want to do a solo, it is in the key of A. Also, 
Rossington uses the phaser effect during the picking part of the 
verse, because he used a 70's Peavey and most of those have a phaser
(i owned one). The 7b8b7b8 thing just meanes to bend the "7" a bunch
in according to the CD.

Questions, comments, or requsets appreciated.

Angus_88@yahoo.com
		   
AcordesyTabs.com © 2008 Acordes y Tablaturas para guitarra. Tabs and Chords for guitar. Aviso Legal - Contacto
El uso de este sitio está sujeto a la aceptación de los términos y condiciones (33 usuarios online)