tablaturas, partituras y acordes para guitarra
Busca por banda/artista:
 
y/o título de la canción:
A B C D E F G H I J K L M N O P Q R S T U V W X Y Z 0 1 2 3 4 5 6 7 8 9 / Top 100 tabs
Categorías
Usuarios
usuario:
Darse de alta
password:
Artistas más visitados
Publicidad
TOP acordes y tablaturas de Lynyrd Skynyrd


Estás en: Inicio > Letra L > Acordes y tablaturas de Lynyrd Skynyrd > Whats Your Name Complete
Whats Your Name Complete
de Lynyrd Skynyrd
Puntúa este acorde/tab:      
(0.5/5)
Reportar este acorde/tab
  Añadir a tus favoritos
  Imprimir
Song: What's Your Name
By: Lynyrd Skynyrd
From: "Street Survivors"

Words and Music by Gary Rossington and Ronnie Van Zant

This is 100% correct, and i din't put the timing in so just listen to
the cd.  I added some lyrics under the tab for an estimate of how it
should go.  All the fills and Rhy. fills at the bottom.

LEGEND  h- hammer
        p- pull off
        ^- bend
        v- vibrato
        X- fret hand muting
        / - slide


INTRO  (3 guitars arranged for 1)
|--------------------|------------------------|----------------------|
|--------------------|------------------------|----------------------|
|--------5------6--7-|----------------109--7-|---7-----7------------|
|--------5------6--7-|----9--7--------109--7-|---7-----7------------|
|-----------3---4--5-|----5--5----------------|------9----------4--5-|
|---------------4--5-|------------------------|--------------0--2--3-|

(Fill 1)                                      VERSE
|--------------------|------------------------|----------------------|
|--------------------|------------------------|----------------------|
|-----------------12|-----2--54--2--------2-|--2-----------------2-|
|-----------------12|-----2--54--2------4-2-|--2--4-----2--4-----2-|
|--5--7-----5--7--10|----------------3---4-0-|--------0--0--0-----0-|
|--3--3--3--3--3-----|------------------------|----------------------|
                                  Well, it's.....


|----------------------|----------------------|----------------------|
|----------------------|----------------------|----------------------|
|--2-------------------|----------------------|---2--------2-------2-|
|--2--4-----2--4-----5-|---5----------------2-|------4--2----------2-|
|--------0--0--0-----5-|---5--7----5--7---3h4-|---------------3--4---|
|----------------------|--------3--3--3-------|----------------------|
                                                              I found..

                                              (Fill 2)
|----------------------|----------------------|----------------------|
|----------------------|----------------------|----------------------|
|--2-----------------2-|--2-------------------|----------------------|
|--2--4-----2--4-----2-|--2--4-----2--4-----2-|--2-------------------|
|--------0--0--0-------|--------0--0--0-----2-|-----4-----2--4-----2-|
|----------------------|--------------------0-|--------0--0--------0-|



|----------------------|----------------------|----------------------|
|----------------------|----------------------|----------------------|
|--------------------2-|--2-----------------2-|--2-------------------|
|--------------------2-|--2--4-----2--4-----2-|--2--4-----2--4-----5-|
|--2--4-----2--4-----0-|--------0--0--0-----0-|--------0--0--0-----5-|
|--------0--0----------|----------------------|----------------------|
               I done made.....


|----------------------|----------------------|----------------------|
|----------------------|----------------------|----------------------|
|--------------------7-|----7---------------2-|--2---------2---------|
|--5-----------------7-|----7--5------------2-|--2---4-----2---4---2-|
|--5--7-----5--7-----5-|----5--5--------------|---------0--0-------2-|
|--------3--3--3-------|-------3--------------|--------------------0-|


                       (Fill 3 1st time/8 3rd time)
|----------------------|----------------------|----------------------|
|----------------------|----------------------|----------------------|
|--------------------2-|---2-----2-------2----|--2------2----------7-|
|--2-----------------2-|---2--4--2---4---2----|--2-4--2-2----5--6--7-|
|--2---4----2--4-----0-|---------0-------0----|--------------3--4--5-|
|-----------0--0-------|----------------------|----------------------|
                                                        What's your....

CHORUS                                        (Fill 5)
|----------------------|----------------------|----------------------|
|----------------------|----------------------|----------------------|
|--7----------109--7--|----7---7-------------|------------------3/4-|
|--7--9--7----109--7--|----7---7-------------|---5--------5--5------|
|--5--5--5-----87--5--|------9---------4--5--|------7-----5--5------|
|----------------------|-------------0--2--3--|---------4------------|


                       (Fill 4)
|-3--3-----3--3--------|----------------------|----------------------|
|-3--3--5--3--3--------|----------------------|----------------------|
|--------------------7-|--7-----------109--7-|----7-----------------|
|----------------5-6-7-|--7--9--7-----109--7-|----7------7----------|
|----------------3-4-5-|--5--5--5------87--5-|--------9--5-----4--5-|
|----------------------|----------------------|--------------0--2--3-|
              Shootin'........
First Time                                      Second Time
<---------------------------------------------><-----------------------
|----------------------|----------------------|----------------------|
|----------------------|----------------------|----------------------|
|------------------12-|---2--54--2--------2-|------------------3h4-|
|--5---------------12-|---2--54--2-----4--2-|---5--------5-------3-|
|--5--7-----5--7---10-|--------------3--4--0-|------7-----5---7-----|
|--3--3--3--3--3-------|----------------------|---------3------------|



|----------------------|----------------------|----------------------|
|----------------------|----------------------|----------------------|
|-------------------7--|--7----------109--7--|--7-----7-------------|
|-----2--5----5--6--7--|--7--9--7----109--7--|--7-----7-------------|
|--5----------3--4--5--|--5--5--5-----87--5--|-----9-----------4--5-|
|----------------------|----------------------|--------------0--2--3-|
         What's your name....

(Fill 6)
|----------------------|-3--3-----3--3--------|----------------------|
|----------------------|-3--3--5--3--3--------|----------------------|
|-----------------3/4--|--------------------7-|--7----------109--7--|
|--5--------5--5-------|----------------5-6-7-|--7--9--7----109--7--|
|-----7-----5--5-------|----------------3-4-5-|--5--5--5-----87--5--|
|--------3-------------|----------------------|----------------------|
                                  Shootin'....

                       (Fill 7)(Rhy. Fig. 1)
|----------------------|----------------------|----------------------|
|----------------------|----------------------|----------------------|
|---7------------------|----------------------|-------------------14-|
|---7------7-----------|----------------------|-------------14-16----|
|-------9--5-----4--5--|----------------------|-------12/16----------|
|-------------0--2--3--|----------------------|----------------------|
 won't cha do the same?

SOLO
|----------------------|--17------17------17---------|--------------------------
|-17---17----------17--|--17-17---17-17---17---------|--------------------------
|-16^--16^v--------16^-|-----16^-----16^-----16p14---|--14h16-16v16-14----14-14-
|----------------------|---------------------------16|--------------14-16-------
|----------------------|-----------------------------|--------------------------
|----------------------|-----------------------------|--------------------------



|-----------------------------|-------------------|-----------------|-----------
|-----------------------------|-------------------|-----------------|-----------
|-14v-14v14------14-14-16p14--|-14v-16^--------14v|---------------14|----------1
|-----------14h16-----------16|-----------14-16---|--16----14h16---|16p14-14v--
|-----------------------------|-------------------|-----------------|-----------
|-----------------------------|-------------------|-----------------|-----------



|-------------------------------|---------------------|--------------------|
|-------------------------------|---------------------|--------------------|
|-------------------------------|---------------------|-------14--------14-|
|-------------------------------|-------------------14|-14-16-----14-16----|
|-12--12-12-12--X-----12-14p12--|-12---12----12/16---|--------------------|
|----------------12h14--------14|---------------------|--------------------|


let ring------------------------------------------------------------->
|---------------------------------------|-------------------------------------|
|---------------------------------------|-------------------------------------|
|-------14-14-----14-14-----14-14-----14|--14----14-14----14-14----14-16p14---|
|-14h16----14h16-----14h16-----14h16----|--14h16----14h16----14h16----------16|
|---------------------------------------|-------------------------------------|
|---------------------------------------|-------------------------------------|



|------------------|-----------------|-------------------|-------------------|
|------------------|-----------------|-------15--15--17--|-------------------|
|-14v-16^-------14v|--------------14-|-14-14h16--14--16^v|-------------------|
|----------14-16---|---16/X---14h16-|-14----------------|-------------------|
|------------------|-----------------|-------------------|-------------------|
|------------------|-----------------|-------------------|-------------------|
                                                                What's your name
Go into the chorus take first ending then:

OUTRO
|----------------------|---------------|
|----------------------|---------------|
|--0--32--0-----------|--32--0--0----|
|--0--32--0---------0-|--32--0--0----|
|--------------1h2-----|---------------|
|----------------------|----------3----|
                                Whew!


Rhy. Fig. 1(Under Solo)
|------------------------|------------------|------------------|----------------
|------------------------|------------------|------------------|----------------
|----------------------4-|--4-------------2-|--2-----2-------2-|--2-------2-----
|--5----------5--------3-|--3-------------2-|--2-4p2-2--4----2-|--2--4p2--2--4--
|-----7-------5---7------|----------------0-|--------0-------0-|----------0-----
|---------3--------------|------------------|------------------|----------------



|--------------------|----------------|----------------|-----------------|------
|--------------------|----------------|----------------|-----------------|------
|------------------2-|--2-----2-----2-|--2-------2---2-|--2-------2------|------
|--5--------5------2-|--2-4p2-2-----2-|--2-4p2---2-4-2-|--2--4p2--2-4--5-|--5---
|--5--7p5---5---7--0-|--------0-3-4-0-|----------0---0-|----------0----5-|--5-7p
|-----------3--------|----------------|----------------|---------------3-|------



|--------------------|----------------|----------------|------------------------
|--------------------|----------------|----------------|------------------------
|--2-------2-------2-|--2------2-----2|--2-----2-------|------------------------
|--2--4p2--2-------2-|--2-4p2--2-4---2|--2-4p2-2-4--5--|--5---------5---------4-
|----------0--3-4--0-|---------0-----0|--------0----5--|--5--7p5----5--7------4-
|--------------------|----------------|-------------3--|------------3---------2-



|----------------|------------------|---------------|----------------|----------
|----------------|------------------|---------------|----------------|----------
|--------------2-|--2-----2-------2-|--2-----2----5-|--5-----------2-|-2-----2--
|--4---5---5---2-|--2-4p2-2--4----2-|--2-4p2-2-4--5-|--5---5---5---2-|-2-4p2-2-5
|--4---5---5---0-|--------0-------0-|--------0----3-|--3---5---5---0-|---------3
|--2---3---3-----|------------------|---------------|------3---3-----|----------



Fill 1
|---------------3-|
|---------------3-|
|-----------------|
|---5----5--------|
|-----7----5-7----|
|-----------------|

Fill 2
|----------------0-|--2---3---4--0---|
|------------------|-----------------|
|--------------0h1-|--2---3---4----2-|
|---2-----2--------|---------------2-|
|-----4---2--4-----|---------------0-|
|-------0----------|-----------------|

Fill 3 (Piano arr. for guitar)
|----------------------|
|----10--8-------------|
|-----------9--5/6-----|
|-----7--5-----------7-|
|-----------7--3/4-----|
|--------------------5-|

Fill 8 (Horns arr. for guitar)
|--5--87--5--3/4--5--|
|---------------------|
|-------------4/5--5--|
|--7-109--7--5/6--7--|
|---------------------|
|---------------------|

Fill 5 (Piano arr. for guitar)
|---15-15-15-15-15--15--15--15--|--15--15--15--15--------|
|---15-15-15-15-15--14--13--11--|--12--13--12------------|
|-------------------------------|--------------12--------|
|-------------------------------|------------------------|
|-------------------------------|------------------------|
|-------------------------------|------------------------|

Fill 4 (Horns arr. for guitar)
|-----------------------------|------------------------|-12---------------------
|------------------------8----|---------------------8--|------11/12-------------
|-----------------7/9---------|------------------------|--9----------12---------
|------------------------5----|---------------------5--|-------8/9--------------
|-----------------5/7---------|------------------------|-------------10---------
|-----------------------------|------------------------|------------------------

Fill 6 (Piano arr. for guitar)
|-------15-------15-------15-------15--|-------15-------15---------------|
|-------15-------15-------15-------15--|-------15-------15---------------|
|-15h16----15h16----15h16----15h16-----|-15h16----15h16----15h16---------|
|--------------------------------------|---------------------------------|
|--------------------------------------|---------------------------------|
|--------------------------------------|---------------------------------|

Fill 7 (Horns arr. for guitar)
|---------------15--|
|---------15/17-----|
|---------------12--|
|---------12/14-----|
|-------------------|
|-------------------|

Fill 9 (Horns arr. for guitar)
|-----------------------|
|---------------8-------|
|--129---7-------------|
|---------------5-------|
|--107---5-------------|
|-----------------------|

Tabbed by freebird784ever
		   
AcordesyTabs.com © 2008 Acordes y Tablaturas para guitarra. Tabs and Chords for guitar. Aviso Legal - Contacto
El uso de este sitio está sujeto a la aceptación de los términos y condiciones (28 usuarios online)