tablaturas, partituras y acordes para guitarra
Busca por banda/artista:
 
y/o título de la canción:
A B C D E F G H I J K L M N O P Q R S T U V W X Y Z 0 1 2 3 4 5 6 7 8 9 / Top 100 tabs
Categorías
Usuarios
usuario:
Darse de alta
password:
Artistas más visitados
Publicidad
TOP acordes y tablaturas de Lynyrd Skynyrd


Estás en: Inicio > Letra L > Acordes y tablaturas de Lynyrd Skynyrd > Workin For Mca2 Replace
Workin For Mca2 Replace
de Lynyrd Skynyrd
Puntúa este acorde/tab:      
(0.4/5)
Reportar este acorde/tab
  Añadir a tus favoritos
  Imprimir
Lynyrd Skynyrd
   Workin For MCA
   Tabbed by Jason John 'Sudsy' Sutherland
   Note: If you happen to know the tab for 'You Got That Right' 
 'That Smell' 'Searching' 'Call Me The Breeze' or
 'Double Trouble' by Skynyrd, I'd really fuckin appreciate
 if you could e-mail it to me or post it on the Universe.
 Peace out.
sudsy777@hotmail.com
Cheers!
KEY:
     /  slide
     h  hammer on
     p  pull off
     b  bend 
     ~  vibrate string


  Main Riff - Guitar 1 - (Gary Rossington)

  A ---------5-4-2-0-0--0-2-----------5-4-2-0-0-2-4--------
  E --2/7-7-----------------0---/7-7-----------------0-----


  1st Solo - Guitar 2 - (Allen Collins)

  e ----------------------------------------------------------
  b -----12-12~------12b----10~---7h10p7~---------------------
  g --11------------------------------------------------------
  d ----------------------------------------------------------


  e ----------------------------------------------------------
  b ----------------------------------------------------------
  g ---9p7h9p7h9-9b--9b----------9b-7---7-9b------------------
  d ----------------------------------9-------9~--------------


Verse Riff:
A --2-2--5-4-2-0-0--0-2--------2-2--5-4-2-0-0--2-4-------
E -----------------------0-0-----------------------0-----


Chords (guitar 3): 

      (Verse + solos)  B//  D//  Db/  A// /  E/   - All Barr Chords

        (Chorus)  F# //  A / F#//   

Chorus Riff (Guitar 1): 
  
  g -----------------------------------------2----------------- 
  d -------4---2--------------------4---2-------2h4------------
  a ---------4----4-0-----------------4---4--------------------
  E --2-2--------------2-------2-2-----------------------------


  g ------------------------------------------2----------------
  d -------4---2---------------------4---2----2----------------
  a ---------4----4-0------------------4---4-------------------
  E --2-2-------------2----------2-2---------------------------


2nd Solo - Guitar 2:

  g -----7~-----76-6/7/9---------------------7----------------
  d --/9------------------9--97-----------------/9--7---7--9b-
  a -----------------------------9~-------5-----------9-------
  E ------------------------------------/7---------------------


  g -----------------------------------------------------------
  d --9^b-9--7-------------------------------------------------
  a -----------9-7-5---5-7b---7p5------------------------------
  E -----------------7------------7-7-------------------------

Lyrics:

 Verse 1
Oh Seven years of hard luck, comin' down on me       
From the Florida border, yes up to Nashville Tennessee 
I worked in every joint you can name, mister every honkytonk 
Along come Mr Yankee Slicker, sayin' maybe you're what I want 

 Chorus 
Want you to sign your contract 
Want you to sign today 
Gonna give you lots of money 
Workin' For M.C.A

 Solo 

 Verse 2
Ah 9000 dollars, that's all we could win 
But we smiled at the Yankee Slicker with a big ol' Southern grin 
They're gonna take me out to California gonna make me a superstar 
Just pay me all of my money and mister maybe you won't get a scar

 (Chorus)

 Piano solo
 
 Second guitar solo - it's all Bminor pentatonic so if you can 
                      improvise then just play around 7 9 + 10 frets. 
                      It ends with the lead part of the intro.
 

 Verse 3
Suckers took my money since I was seventeen 
If it ain't no pencil pusher, then it got to be a Honkytonk Queen 
But I'll sign my contract baby, and I wan't you people to know 
That every penny that I make, I'm gonna see where my money goes

 (Chorus)

 Ending solo. Bminor pentatonic again, plenty of bends. I'll try to 
 sort the solos out accurately and post them in future.


 I'll speak for every guitar player in the world when I say

                   GOD BLESS ALLEN COLLINS


 Cheers for reading all this shit, all I got to say now is:



     SKYNYRD FUCKIN RULE!
		   
AcordesyTabs.com © 2008 Acordes y Tablaturas para guitarra. Tabs and Chords for guitar. Aviso Legal - Contacto
El uso de este sitio está sujeto a la aceptación de los términos y condiciones (29 usuarios online)