tablaturas, partituras y acordes para guitarra
Busca por banda/artista:
 
y/o título de la canción:
A B C D E F G H I J K L M N O P Q R S T U V W X Y Z 0 1 2 3 4 5 6 7 8 9 / Top 100 tabs
Categorías
Usuarios
usuario:
Darse de alta
password:
Artistas más visitados
Publicidad
TOP acordes y tablaturas de Lynyrd Skynyrd


Estás en: Inicio > Letra L > Acordes y tablaturas de Lynyrd Skynyrd > Working For Mca Intro
Working For Mca Intro
de Lynyrd Skynyrd
Puntúa este acorde/tab:      
(0.6/5)
Reportar este acorde/tab
  Añadir a tus favoritos
  Imprimir
Song: Working for MCA
Band: Lynyrd Skynyrd
Album: Second Helping

I only have the intro, but I'm almost positive it's correct. 
I'll work on the chorus, but you're on your own for the solo (It's in
B minor, and is mostly pentatonic stuff, if that helps)


Guitar 1:
e-----------------------------------
B-----------------------------------
G-4----------------4----------------
D-4-------2-2------4-------2-2-0----
A-2-5-4-2-0-0-2-2--2-5-4-2-0-0---2--
E---------------0----------------0--

Guitars 2 and 3:
e-----------------------------------
B-----------------------------------
G-----------------------------------
D-9---------------9---------------
A-9---------------9---------------
E-7---------------7---------------

Guitar 1 continues through the whole intro solo and verse, Guitars 2 and 
3 play the intro solo in unison, then go into Guitar 1's riff durring
the verse. I think one of them plays a few little fills, but I don't 
recall right now.
		   
AcordesyTabs.com © 2008 Acordes y Tablaturas para guitarra. Tabs and Chords for guitar. Aviso Legal - Contacto
El uso de este sitio está sujeto a la aceptación de los términos y condiciones (57 usuarios online)