tablaturas, partituras y acordes para guitarra
Busca por banda/artista:
 
y/o título de la canción:
A B C D E F G H I J K L M N O P Q R S T U V W X Y Z 0 1 2 3 4 5 6 7 8 9 / Top 100 tabs
Categorías
Usuarios
usuario:
Darse de alta
password:
Artistas más visitados
Publicidad
TOP acordes y tablaturas de Evanescence


Estás en: Inicio > Letra E > Acordes y tablaturas de Evanescence > Fields Of Innocence
Fields Of Innocence
de Evanescence
Puntúa este acorde/tab:      
(0.2/5)
Reportar este acorde/tab
  Añadir a tus favoritos
  Imprimir
Tuning

   standard E tuning, perhaps 1/2 step up

e ---
B ---
G ---
D ---
A ---
E ---


---------------------------------------------------------

Chords used

 Am     D5    F    E
e ---   ---  ---  ---
B -1-   ---  ---  ---
G -2-   -7-  -2-  -1-
D -2-   -7-  -3-  -2-
A -0-   -5-  -3-  -2-
E ---   ---  -1-  -0-




---------------------------------------------------------


Intro


   Am
e -----------0----------------------------------
B --1------3------1------0----------------------
G ----2---------2---2------2---2----------------
D ------2-------------2------2------------------
A ----------------------------------------------
E ----------------------------------------------






------------------------------------------------------------


Verse

     Am
e -------------0-----------------------
B ----1------3------1------0-----------
G ------2---------2---2------2---2-----
D --------2-------------2------2-------
A -------------------------------------
E -------------------------------------

                                    F
e -----------0-----------------------------------0----------------
B --1------3------1-------0------------1-------3------1-----------
G ----2---------2---2-------2---------0---2---------2---2---------
D ------2-------------2--------------3------3-------------2-------
A ----------------------------------3-----------------------------
E ------------------------------3---------------------------------


            Dm
e ----------------------0---------------------------
B --0---------1-------3-------1-----0---------------
G ----2------2----2---------2---2-----2---2---------
D ------2---0-------2-------------2-----2-----------
A ---------0---------------------------------------
E -------------------------------------------------


 
Am                    F                 Dm        Am
 I can't remember the world through the eyes of a child



----------------------------------------------------

Chorus



~ - let ring


   F                E                D               E
e -------------------------------------------------------------
B ------1~----0-1------0~----------------------------------0~--
G -----2----2---------1----------4-2----------------------1----
D ----3--------------2----------------7~-----7-9-7-------2-----
A ---3--------------2-----------------5-----------------2------
E --1--------------0----------------------------------0---------
  



F             E
 Where has my heart gone?

   D                    E      
An uneven trade for the real world



---------------------------------------------------------

Pre-2nd chorus

    F       G          Am 
e -----------------------------------------------
B -----------------------1-----------------------
G -----2-------4--------2------------------------
D ----3-------5--------2-------------------------
A ---3-------5--------0--------------------------
E --1-------3------------------------------------


F           G            Am  
 Somehow it seems colder now		   
AcordesyTabs.com © 2008 Acordes y Tablaturas para guitarra. Tabs and Chords for guitar. Aviso Legal - Contacto
El uso de este sitio está sujeto a la aceptación de los términos y condiciones (39 usuarios online)