tablaturas, partituras y acordes para guitarra
Busca por banda/artista:
 
y/o título de la canción:
A B C D E F G H I J K L M N O P Q R S T U V W X Y Z 0 1 2 3 4 5 6 7 8 9 / Top 100 tabs
Categorías
Usuarios
usuario:
Darse de alta
password:
Artistas más visitados
Publicidad
TOP acordes y tablaturas de Goo goo dolls


Estás en: Inicio > Letra G > Acordes y tablaturas de Goo goo dolls > Hate this Place
Hate this Place
de Goo goo dolls
Puntúa este acorde/tab:      
(0.8/5)
Reportar este acorde/tab
  Añadir a tus favoritos
  Imprimir
[INTRO] (one guitar plays the chords, the other a little solo)


                   
  C#5  B5  A        C#5   B5     A                          
E | -------- | -------- | ------------ | ----------------------------- |  
B | -------- | -------- | ------------ | ----------------------------- |  play last two measures
G | -------- | -------- | ------------ | ----------------------------- |  twice
D | -------- | -------- | ------------ | 2/4-2---------------------- |  
A | -------- | -------- | 2/4------- | --------2--2-2/4----------- | 
E | -------- | -------- | ------------ | --------------------0-2-4-2r0 | 



[VERSE]
           G#5   E5
   Gone away
   B5                  A5
   Who knows where you been
   E5         G#5
     You take all your lies
       B5              A5
   And wish them all away


   E5          G#5
     I somehow doubt
         B5          A5
   We'll ever be the same
   E5                 G#5
     There's too much poison
          B5             A5
   And confusion on your face



[PRE-CHORUS]
     Riff 1              Riff 2
   E | -------------- |    E | -------------- | 
   B | -------------- |    B | -------------- | 
   G | -------------- |    G | -------------- | 
   D | 6---6-6-6-6-6- |    D | 7---7-7-7-7-7- | 
   A | 6---6-7-6-7-6- |    A | 7---7-9-7-9-7- | 
   E | 4---4-4-4-4-4- |    E | 5---5-5-5-5-5- | 


     Can you feel it     I didn't mean it
     Can I see you       What are we doin'
     I think I love you  but I ain't sayin' 


   B5                A5
   nothin' you don't know



[CHORUS]


Sugested strumming pattern:
     C#m          B            A            E
   E | -----------4 | -----------2 | -----------0 | ------------ |  If you don't strum
   B | ----5----5-5 | ----4----4-4 | ----2----2-2 | ------------ |  like this, you'd
   G | 6---6-6--6-6 | 4---4-4--4-4 | 2---2-2--2-2 | 1----------- |  better play C#5, B5
   D | 6---6-6--6-6 | 4---4-4--4-4 | 2---2-2--2-2 | 1----------- |  A5, E5
   A | 4-----4----- | 2-----2----- | 0-----0----- | 2----------- | 
   E | ------------ | ------------ | ------------ | 0----------- | 


   C#m  B  A    E
   Hold on dreamaway
   C#m    B  A     E
   You're my sweet charade

[VERSE]
             E5   G#5
   Take your time
   B5               A5
   Move yourself to me
   E5           G#5
     Yeah I can take your lies
     B5            A5
   Until you fall away


   E5              G#5
      You know I'm lost
   B5             A5
   Hiding in your bed
   E5           G#5
     No I don't think it's wrong
        B5              A5
   It's just gone to my head




[PRE-CHORUS]
     Riff 1              Riff 2
   E | -------------- |    E | -------------- | 
   B | -------------- |    B | -------------- | 
   G | -------------- |    G | -------------- | 
   D | 6---6-6-6-6-6- |    D | 7---7-7-7-7-7- | 
   A | 6---6-7-6-7-6- |    A | 7---7-9-7-9-7- | 
   E | 4---4-4-4-4-4- |    E | 5---5-5-5-5-5- | 


     Can you feel it     I didn't mean it
     Can I see you       What are we doin'
     I think I love you  but I ain't sayin' 


   B5                A5
   nothin' you don't know

[CHORUS]
   C#m  B  A    E
   Hold on dreamaway
   C#m    B  A     E
   You're my sweet charade

[BRIDGE]


   A5 ( A9 ) A5
           Hey whatchya do to me
   E5
      Would you come back to me
   A5 ( A9 )   A5 
      Yeah I can't do another day
   E5
      I'm not certain of it anyway
   A5 ( A9 )    A5
      I ain't messin' with another life
   E5
      Can I get along without you
   A5
   Tell me lies
            C#5  B5 A
   That you know I  need

[CHORUS]
   C#m  B  A    E
   Hold on dreamaway
   C#m    B  A     E
   You're my sweet charade


   C#m  B  A    E
   Hold on dreamaway
   C#m    B  A     E
   You're my sweet charade

[OUTRO] (fade out)
   C#m  B  A    E
   Hold on dreamaway
   C#m  B  A    E
   Hold on dreamaway


     C#m          B            A            E
   E | 5-5---4-4--- | 5-5---4-4--- | 5-5--4-4---7 | 7----------- | 
   B | ------------ | ------------ | ------------ | ------------ | 
   G | ------------ | ------------ | ------------ | ------------ | 
   D | ------------ | ------------ | ------------ | ------------ | 
   A | ------------ | ------------ | ------------ | ------------ | 
   E | ------------ | ------------ | ------------ | ------------ | 


     C#m           B             A            E
   E | 5-5-5-5--4-4- | 2-2-2----0-0- | -------0-2-- | 2-0--------- | 
   B | ------------- | ------------- | 0-0-2------- | ------------ | 
   G | ------------- | ------------- | ------------ | ------------ | 
   D | ------------- | ------------- | ------------ | ------------ | 
   A | ------------- | ------------- | ------------ | ------------ | 
   E | ------------- | ------------- | ------------ | ------------ | 


     C#m          B                A            E
   E | 0-0-0-2--2-- | 0-0-0-2/4-2-2-0- | --------0-0- | --0-0--0---- | 
   B | ------------ | ---------------- | 2-2---2----- | ------------ | 
   G | ------------ | ---------------- | ------------ | ------------ | 
   D | ------------ | ---------------- | ------------ | ------------ | 
   A | ------------ | ---------------- | ------------ | ------------ | 
   E | ------------ | ---------------- | ------------ | ------------ | 


     C#m          B            A            E
   E | 5-7---7-7--- | 5-7---7-7--- | 9--12-12-12- | 12---------- | 
   B | ------------ | ------------ | ------------ | ------------ | 
   G | ------------ | ------------ | ------------ | ------------ | 
   D | ------------ | ------------ | ------------ | ------------ | 
   A | ------------ | ------------ | ------------ | ------------ | 
   E | ------------ | ------------ | ------------ | ------------ | 


   C#m   B   A   E

   C#m   B   A   E 		   
AcordesyTabs.com © 2008 Acordes y Tablaturas para guitarra. Tabs and Chords for guitar. Aviso Legal - Contacto
El uso de este sitio está sujeto a la aceptación de los términos y condiciones (33 usuarios online)