tablaturas, partituras y acordes para guitarra
Busca por banda/artista:
 
y/o título de la canción:
A B C D E F G H I J K L M N O P Q R S T U V W X Y Z 0 1 2 3 4 5 6 7 8 9 / Top 100 tabs
Categorías
Usuarios
usuario:
Darse de alta
password:
Artistas más visitados
Publicidad
TOP acordes y tablaturas de The strokes


Estás en: Inicio > Letra T > Acordes y tablaturas de The strokes > Hard To Explain
Hard To Explain
de The strokes
Puntúa este acorde/tab:      
(0.5/5)
Reportar este acorde/tab
  Añadir a tus favoritos
  Imprimir
INTRO: guitarra 1: G F# G Am D D C Am

guitarra 2:
e-33333333222222223333333333333333------------------
B---------------------------------------------------
G---------------------------------------------------
D---------------------------------------------------
A---------------------------------------------------
E---------------------------------------------------


e---------------------------------------------------
B---3-5----3-5-7-5-3-5-7-5--------------------------
G-5-----2-0-5-5-5-5-5-5----0-2-4-2-0-2-4-2----------
D---------------------------------------------------
A---------------------------------------------------
E---------------------------------------------------

versos:(mesmo da intro)



bridge:(G Em B Am) duas vezes.



refrão: 
e---------------------------------------------------
B---------------------------------------------------
G-4-7-4-5-4-4-7-4-5-4---4---------4-----------------
D---------------------5---5-7-5-5---7-5-------------
A---------------------------------------------------
E---------------------------------------------------

Rebita 4 vezes e nofinal da quarta vez termine uma nota antes (7).

Letra:

Was an honest man
Asked me for the phone
Tried to take control
Oh, I don't see it that way
I don't see it that way

Oh, we shared some ideas
All obsessed with fame
Says we're all the same
Oh, I don't see it that way
I don't see it that way

Raised in Carolina
"I'm not like that"
Trying to remind her
When we go back

I missed the last bus, I'll take the next train
I try but you see, it's hard to explain
I say the right things, but act the wrong way
I like it right here, but I cannot stay
I watch the TV; forget what I'm told
Well, I am too young, and they are too old
The joke is on you, this place is a zoo
"You're right it's true"

Says he can't decide
I shake my head to say
Everything's just great
Oh, I just can't remember
I just can't remember

Raised in Carolina, she says:
" I'm not like that"
Trying to remind her
When we go back

I say the right things but act the wrong way
I like it right here but I cannot stay  
I watch the TV; forget what I'm told
Well, I am too young, and they are too old
Oh, man, can't you see I'm nervous, so please
Pretend to be nice, so I can be mean
I miss the last bus, we take the next train
I try but you see, it's hard to explain		   
AcordesyTabs.com © 2008 Acordes y Tablaturas para guitarra. Tabs and Chords for guitar. Aviso Legal - Contacto
El uso de este sitio está sujeto a la aceptación de los términos y condiciones (43 usuarios online)