tablaturas, partituras y acordes para guitarra
Busca por banda/artista:
 
y/o título de la canción:
A B C D E F G H I J K L M N O P Q R S T U V W X Y Z 0 1 2 3 4 5 6 7 8 9 / Top 100 tabs
Categorías
Usuarios
usuario:
Darse de alta
password:
Artistas más visitados
Publicidad
TOP acordes y tablaturas de Foo fighters


Estás en: Inicio > Letra F > Acordes y tablaturas de Foo fighters > I'll Stick Around
I'll Stick Around
de Foo fighters
Puntúa este acorde/tab:      
(0.5/5)
Reportar este acorde/tab
  Añadir a tus favoritos
  Imprimir
Intro/Pre-Chorus
(Guitar 1)
e||----------X--X--X-------3-|---------X--X--X----------||
B||----------4--4--4-------3-|---------4--4--4----------||
G||----------3--3--3--3/5----|---------3--3--3--3/5--3--||
D||--5--5----1--1--1--3/5----|-5--5----1--1--1--3/5--3--||
A||--5--5----1--1--1--1/3----|-5--5----1--1--1--1/3-----||
E||--3--3--------------------|-3--3---------------------||
  (3x)                       (4x)

(Guitar 2)
e||-----------------------------|----------------------------||
B||-----------------------------|----------------------------||
G||----------8--8--8---------10-|---------8--8--8------------||
D||--5--5----8--8--8--8--10--10-|-5--5----8--8--8--8--10--8--||
A||--5--5----6--6--6--8--10--8--|-5--5----6--6--6--8--10--8--||
E||--3--3-------------6--8------|-3--3-------------6--8---6--||
  (3x)                          (4x)


Verse
e||--10-----------10--|-----------------|----------------|
B||--8------------8--|------------6-|--------------|
G||--0---  strum  0--|-		   
AcordesyTabs.com © 2008 Acordes y Tablaturas para guitarra. Tabs and Chords for guitar. Aviso Legal - Contacto
El uso de este sitio está sujeto a la aceptación de los términos y condiciones (29 usuarios online)