tablaturas, partituras y acordes para guitarra
Busca por banda/artista:
 
y/o título de la canción:
A B C D E F G H I J K L M N O P Q R S T U V W X Y Z 0 1 2 3 4 5 6 7 8 9 / Top 100 tabs
Categorías
Usuarios
usuario:
Darse de alta
password:
Artistas más visitados
Publicidad
TOP acordes y tablaturas de Foo fighters


See You
de Foo fighters
Puntúa este acorde/tab:      
(0.3/5)
Reportar este acorde/tab
  Añadir a tus favoritos
  Imprimir
(Normal Tuning)

Intro
e |  | ----3---- |  | 
B |  | ----2---- |  | 
G |  | ----2---- |  | 
D |  | ----2---- |  | 
A |  | ----0---- |  | 
E |  | --------- |  | 

Verse
e |  | --1----0----3----1----0----3-- |  | 
B |  | --1----0----2----1----0----2-- |  | 
G |  | --2----1----2----2----1----2-- |  | 
D |  | --3----2----2----3----2----2-- |  | 
A |  | --3----2----0----3----2----0-- |  | 
E |  | --1----0---------1----0------- |  | 

Chorus
e |  | --3----2---3---2---3---2---1-------1---0----3-- |  | 
B |  | --2----3---2---3---2---3---1---2---1---0----2-- |  | 
G |  | --2----2---2---2---2---2---2---2---2---1----2-- |  | 
D |  | --2----0---2---0---2---0---3---2---3---2----2-- |  | 
A |  | --0--------0-------0-------3---0---3---2----0-- |  | 
E |  | ---------------------------1-------1---0------- |  | 

Bridge
e |  | --3------3------5------6------3-----1-----0-------3-- |  | 
B |  | --3------3------5------6------3-----1-----0-------2-- |  | 
G |  | --4------4------5------7------4-----2-----1-------2-- |  | 
D |  | --5------5------7------8------5-----3-----2-------2-- |  | 
A |  | --5------5------7------8------5-----3-----2-------0-- |  | 
E |  | --3------3------5------6------3-----1-----0---------- |  | 
______________________
Foo Fighters - See You
(Normal Tuning)


Chords
    A7  F7  E7  G7  C7  D7  Ab7
e | --5---1---0---3---8---10---4-- | 
B | --5---1---0---3---8---10---4-- | 
G | --6---2---1---4---9---11---5-- | 
D | --5---1---2---3---8---10---4-- | 
A | --7---3---2---5---10--12---6-- | 
E | --5---1---0---3---8---10---4-- | 

(Verse)
A7       F7                E7               A7
         These notes are marked return to sender
F7             E5             A7
I'll save this letter for my---self
F7           E7
I wish only new

(Chorus)
A7               D7
How good it is to see you
A7               D7
                  see you
A7               D7
                  see you
Ab7      A7
ooooohh   ooh
F7          E7           A7
ooo ooo     ooo ooo ooo ooo  

(Bridge)
G5                                        A7       C7
I'm done resenting you, you represented me so well
G5                     F7                           E7
And this I promise you, how could I end up in the hands of someone else 		   
AcordesyTabs.com © 2008 Acordes y Tablaturas para guitarra. Tabs and Chords for guitar. Aviso Legal - Contacto
El uso de este sitio está sujeto a la aceptación de los términos y condiciones (38 usuarios online)