tablaturas, partituras y acordes para guitarra
Busca por banda/artista:
 
y/o título de la canción:
A B C D E F G H I J K L M N O P Q R S T U V W X Y Z 0 1 2 3 4 5 6 7 8 9 / Top 100 tabs
Categorías
Usuarios
usuario:
Darse de alta
password:
Artistas más visitados
Publicidad
TOP acordes y tablaturas de Live


Estás en: Inicio > Letra L > Acordes y tablaturas de Live > Deep enough
Deep enough
de Live
Puntúa este acorde/tab:      
(0.4/5)
Reportar este acorde/tab
  Añadir a tus favoritos
  Imprimir
Tom: E5
Lead1
eb----------19----------------------------
Bb-------------15-14--------------20-19---
Gb-------16-----------16--18--19----------
Db----------------------------------------
Ab-14-------------------------------------
Eb--------------------15------17----------
   Bm                 G        A
eb----------19--------------------------------------
Bb-------------15-14-------------20-18-18-18--------
Gb-------16-----------16--18--19-------------16-15--
Db--------------------------------------------------
Ab-14-----------------------------------------------
Eb--------------------15------17--------------------
   Bm                 G       A     G
Riff1 (Intro)
eb----------------------------------------------
Bb----------------------------------------------
Gb----------------------------------------------
Db-2-/4-4-4-4--2-/4-4-4-4--2-/4-4-4-4--5~~~~~---
Ab-2-/4-4-4-4--2-/4-4-4-4--2-/4-4-4-4--5~~~~~---
Eb-0-/2-2-2-2--0-/2-2-2-2--0-/2-2-2-2--3~~~~~---
   E5 F#5      E5 F#5      E5 F#5      G5
Lead2 (One octave higher with effect pedal)
eb-9-10-9-7-9~~~~--9-7-6-7-9-10-15~~---9-10-9-7-9~~~~--9-7-6----------------
Bb-----------------------------------------------------------7-8-----7h8p7--
Gb--------------------------------------------------------------------------
[Intro]
Lead1  -Drums (toms)
E5 F#5      E5 F#5      E5 F#5      G5  (&Lead2)

E5 F#5      E5 F#5      E5 F#5      G5  (&Lead2)
[Verse1]
E5 F#5      E5 F#5      E5 F#5 (bass only)                  G5
We hit the room , me and my crew   and it was cool, until we bumped__  into you
E5 F#5      E5 F#5      E5 F#5
Now it's been years, but there you were like a mustang,
E5
redlinin' every single gear
E5 F#5      E5 F#5      E5 F#5  (dist/ guitar)
with a man that danced like he was born in '49, but lost his
G5
groove___ back when jesus died
E5 F#5      E5 F#5      E5 F#5
I wanna know, are those replacement hips? Is that a swatch watch?
E5
Do you know what time__ it_ is?

[Chorus1]
B5                         G5             A5
Does he run it deep enou___ough____   to_ take_ you_ there__?
B5                           G5            A5
Does he run it deep enou__ou_ough__   oh__ tell_ me_ ba_by_
B5                           G5       A5
Does he run it deep enou___ough__     tell_ me_  tell_ me_
F5*
Does he run it deep enough__?   Does he run it DEEP__ enough for you_?
E5 F#5      E5 F#5      E5 F#5      G5     (&Lead2)

E5 F#5      E5 F#5      E5 F#5      G5     (&Lead2)
[Verse2]

Drums (Lead2)

We hit a couch, the place was packed with sweaty palms__,

sweaty thongs, and sweaty backs

Drums (Lead2)

my mouth was dry, my brain cold high, the groove was right,

so I decided to ignite
E5 F#5      E5 F#5      E5 F#5  (dist/ guitar + bass)
your eyes met mine, you skirt began to rise, and so did I
        G5
now you know__ that I took that prize
E5 F#5      E5 F#5      E5 F#5                                         E5
in the middle of the club, in the middle of the club, in the MIDDLE OF THE CLUB NOW TELL ME!

[Chorus2]
B5                         G5             A5
Does he run it deep enou___ough____   to_ take_ you_ there__?
B5                           G5            A5
Does he run it deep enou__ou_ough__   oh__ tell_ me_ ba_by_
B5                         G5         A5
Does he run it deep enou___ough__     tell_ me_  ba_by_
Bm /           /         G /            /
              What did I do__o__?        What did I
Bm /           /            Em /            /
say______?    that gave you a_way______     tell me what didn't I
Bm /           /            G /              A       / / / /
do___,        what didn't I say_____    that sent you away from

[Solo]
E5 F#5      E5 F#5      E5 F#5      G5     (&Lead2)
me___
E5 F#5      E5 F#5      E5 F#5      E5     (&Lead2)
              Uh    uh     uh    deep enough for you
E5 F#5      E5 F#5      E5 F#5      E5     (&Lead2)
Solo (fast picking)
eb-9-9-9-12-12-12-12-12-9-9-9-12-12-12-9-9-9---12-9---------
Bb--------------------------------------------------12-11---
Gb----------------------------------------------------------
Db----------------------------------------------------------
Ab----------------------------------------------------------
Eb----------------------------------------------------------
eb-12-9----12-9----12-9----12-9-------------------
Bb------11------11------11------11----------------
Gb---------------------------------11~--11~--12~--
Db------------------------------------------------
Ab------------------------------------------------
Eb------------------------------------------------
[Chorus3]
B5                         G5             A5
Does he run it deep enou___ough____   to_ take_ you_ there__?
B5                           G5            A5
Does he run it deep enou__ou_ough__   oh__ tell_ me_ ba_by_
B5                           G5            A5
Does he run it deep enou___ough__     oh__ tell_ me_  tell_ me_
G7                        G7
I'm just a jealous_ guy__, I'm just a jealous_  guy_ come on!
B5                         G5                 A5
Does he run it deep enou___ough____   oh baby deep enough for you__?
B5                         G5                 A5
Does he run it deep enou___ough____   oh baby deep enough for you__?
B5                           G5        A5
Does he run it deep enou_____ou_____ough______
G7
Does he run it deep enough - I'm just a jealous_ guy__,
G7                Bm!
Just a jealous_  guy_ 		   
AcordesyTabs.com © 2008 Acordes y Tablaturas para guitarra. Tabs and Chords for guitar. Aviso Legal - Contacto
El uso de este sitio está sujeto a la aceptación de los términos y condiciones (20 usuarios online)