tablaturas, partituras y acordes para guitarra
Busca por banda/artista:
 
y/o título de la canción:
A B C D E F G H I J K L M N O P Q R S T U V W X Y Z 0 1 2 3 4 5 6 7 8 9 / Top 100 tabs
Categorías
Usuarios
usuario:
Darse de alta
password:
Artistas más visitados
Publicidad
TOP acordes y tablaturas de Mark knopfler


Estás en: Inicio > Letra M > Acordes y tablaturas de Mark knopfler > Fare thee well Northumberland
Fare thee well Northumberland
de Mark knopfler
Puntúa este acorde/tab:      
(0.7/5)
Reportar este acorde/tab
  Añadir a tus favoritos
  Imprimir
Come drive me down to the central station 
I hate to leave my River Tyne 
For some damn town that's god-forsaken 
Fare thee well, Northumberland 
Although I'll go where the lady takes me 
She'll never tell what's in her hand 
I do not know what fate awaits me 
Fare thee well, Northumberland
 

                   C
My heart beats for my streets and alleys 
         F     G                  C
Longs to dwell in the borderlands 
C
The north-east shore and the river valleys 
F           G                     C
Fare thee well Northumberland 
          F                               C
I may not stay, I'm bound for leaving
C                             Bb
I'm bound to ramble and to roam
         C                 C
I only say my heart is grieving
       F          G                    C 
I would not gamble on my coming home
Cm
Roll on, geordie boy, roll 
Cm
Roll on, geordie boy, roll
Cm 
Roll on, geordie boy, roll 
               Bb           Cm
Roll on, geordie boy, roll 


C
So drive me down to the central station 
F            G                   C
I hate to leave my River Tyne 
C
For some damn town that's god-forsaken
F         G                 C
Goodbye old friend of mine 
F                         C
Although I'll go where the lady takes me 
C                            G
She'll never tell what's in her hand 
      C
I do not know what fate awaits me 
  F           G                      C
Fare thee well, Northumberland


Cm
So roll on, geordie boy, roll 
Cm
Roll on, geordie boy, roll 
Cm
Roll on, geordie boy, roll 
Cm
Roll on, geordie boy, roll 

Cm
-------- | ------ | --------- | ------------ | --- | ------- | ------------------- | --- | 
---4---- | --4--- | ---4^6^4- | ------1^4^1- | --- | ---4--- | ------------------- | --- | 
--x---5- | -x---- | --x------ | ------------ | --- | --x---- | -5^3---5------8---- | --- | 
-x------ | ------ | -x------- | -1>3-------- | --- | -x----- | -----5---5>10---10- | --- | 
-------- | ------ | --------- | ------------ | --- | ------- | ------------------- | --- | 
-------- | ------ | --------- | ------------ | --- | ------- | ------------------- | --- | 

---------------- | --------------------------- | ------------------ | -------- | 
---4------------ | --------------------------- | ---------8-------- | -------- | 
--x---5^3------- | --------------------------- | -10~(12)---8------ | ------8- | 
-x--------5-1>3- | -1-3^1-------------1------- | -------------8-10- | -8-10--- | 
---------------- | -------3-1^3^1---1---1-3-3- | ------------------ | -------- | 
---------------- | ---------------3----------- | ------------------ | -------- | 

----------------------- | ------------------ | ---- | ------------------ | --------------- | 
---------8------------- | ----------------8- | ---- | ---------8-------- | --------------- | 
-10~(12)---8----------- | ----------------8- | ---- | -10~(12)---8------ | ------8---10-8- | 
-------------8^10^8---- | -------------10--- | -10- | -------------8-10- | -8^10---10----- | 
--------------------10- | -8^6^8^6---------- | ---- | ------------------ | --------------- | 
----------------------- | ---------8-------- | ---- | ------------------ | --------------- | 

----------- | --------------------- | ---------------- | ------------ | --- | ----------- | 
----------- | --------------------- | ---------------- | ---4-------- | --- | ---4^6^4-4- | 
----------- | ------8-10~(11)~10^8- | -10^8---------8- | --x---5-3-5- | --- | -x--------- | 
-10-x-8-10- | -8^10---------------- | ------10-8^10--- | -x---------- | --- | ----------- | 
----------- | --------------------- | ---------------- | ------------ | --- | ----------- | 
----------- | --------------------- | ---------------- | ------------ | --- | ----------- | 

--------- | ------------------------- | ------- | --- | --- | ------------------------- | --- | 
--------- | ------------------------- | ---4-4- | --- | --- | -6~(8)~6^4-6---4---4----- | --- | 
--------- | ------------------------- | --x---- | --- | --- | ---------------------3^5- | -5- | 
---3-1>3- | -1^3^1------------------- | -x----- | --- | --- | ------------------5------ | --- | 
-x------- | -------3-1^3^1^3^1^3^1^3- | ------- | --- | --- | ------------------------- | --- | 
--------- | ------------------------- | ------- | --- | --- | ------------------------- | --- | 

--- | --- | --- | --------------- | --- | --- | --- | --- | ----------------------- | --- | --- | 
--- | --- | --- | --------------- | --- | --- | --- | --- | ----------------------- | --- | --- | 
--- | --- | --- | --------------- | --- | --- | --- | --- | ----------------------- | --- | --- | 
--- | --- | --- | -3-1-1--------- | --- | --- | --- | --- | -1^3-1^3-1^3-1^3-1^3^1- | --- | --- | 
--- | --- | --- | -------3^1----- | -3- | --- | --- | -3- | ----------------------- | -3- | --- | 
--- | --- | --- | -----------3-1- | --- | --- | --- | --- | ----------------------- | --- | --- | 

------------------------- | ----- | --- | --- | --- | --------- | ------------------------- | 
------------------------- | ----- | --- | --- | --- | --------- | ------------------------- | 
------------------------- | ----- | --- | --- | --- | --------- | ------------------------- | 
------------------------- | ----- | --- | --- | --- | -1------- | -1^3-1^3-1^3-1-------1--- | 
-1^3-1^3-1^3-1^3-1^3^1--- | ---3- | --- | --- | --- | ---3-1^3- | ---------------3-1^3---3- | 
-----------------------3- | -1--- | --- | --- | --- | --------- | ------------------------- | 

C
So drive me down to the central station 
F            G                   C
I hate to leave my River Tyne 
C
For some damn town that's god-forsaken
F         G                 C
Goodbye old friend of mine 
F                         C
Although I'll go where the lady takes me 
C                            G
She'll never tell what's in her hand 
      C
I do not know what fate awaits me 
  F           G                      C
Fare thee well, Northumberland 		   
AcordesyTabs.com © 2008 Acordes y Tablaturas para guitarra. Tabs and Chords for guitar. Aviso Legal - Contacto
El uso de este sitio está sujeto a la aceptación de los términos y condiciones (30 usuarios online)