tablaturas, partituras y acordes para guitarra
Busca por banda/artista:
 
y/o título de la canción:
A B C D E F G H I J K L M N O P Q R S T U V W X Y Z 0 1 2 3 4 5 6 7 8 9 / Top 100 tabs
Categorías
Usuarios
usuario:
Darse de alta
password:
Artistas más visitados
Publicidad
TOP acordes y tablaturas de Mark knopfler


Estás en: Inicio > Letra M > Acordes y tablaturas de Mark knopfler > Hill farmer blues
Hill farmer blues
de Mark knopfler
Puntúa este acorde/tab:      
(0.5/5)
Reportar este acorde/tab
  Añadir a tus favoritos
  Imprimir
Riff 1:
    C                C               D             D             C
---10-8---10-8- | ---10-8---10-8- | ---7-5---7-5- | ---7-5----- |  | -----10-8---10-8- | 
-8------8------ | -8------8------ | -7-----7----- | -7-----8^7- |  | ---8------8------ | 
--------------- | --------------- | ------------- | ----------- |  | -9--------------- | 
--------------- | --------------- | ------------- | ----------- |  | ----------------- | 
--------------- | --------------- | ------------- | ----------- |  | ----------------- | 
--------------- | --------------- | ------------- | ----------- |  | ----------------- | 

     C                D          D 
---10-8---10-8- | ---7-5---7-5- | ---7-5----- |  | 
-8------8------ | -7-----7----- | -7-----8^7- |  | 
--------------- | ------------- | ----------- |  | 
--------------- | ------------- | ----------- |  | :
--------------- | ------------- | ----------- |  | 
--------------- | ------------- | ----------- |  | 

Riff 2 :
-----7------7---- | ---7-------- |  | 
---8---10-8---10- | -8---10-8^7- |  | 
-9--------------- | ------------ |  | 
----------------- | ------------ |  | :
----------------- | ------------ |  | 
----------------- | ------------ |  | 
  
Em                      G          C
I'm going into tow law For what I need 
   G              D                    Em
Chain for the ripsaw Killer for the weed (riff 2)
Em                      G             C
The dog's at the back door Leave him be
G                D                     Em 
Don't feed him jack And don't wait up for me (riff 2)


Em                      G         C
Going into tow law To fuel my fire 
   G            D                   Em
Shells for the twelve And razor wire   (riff 2)
Em                      G             C
The dog's at the back door Leave him be 
G               D                     Em
Don't do jack And don't wait up for me (riff 2)

(Play riff 1)
C         D
So bad so bad 

So bad so bad 


Em                       G         C
I'm going into tow law To have my fun 
G            D                        Em
Don't get me wrong You were the only one (riff 2)
Em                    G                C
Behind my back lord You made a fool of me
 G              D                   Em
Don't do jack And don't wait up for me (riff 2)

(riff 1)
C         D
So bad so bad 

So bad so bad 
                         D      C        D       C
------------- | ----- | --- | --- | --- | --- | --- | --- | --- | --- | 
---------3--- | -3>5- | --- | --- | --- | --- | --- | --- | --- | --- | 
-----0-2---4- | ----- | --- | -7- | --- | -5- | --- | -7- | --- | -5- |  fade out
-0-4--------- | ----- | --- | -7- | --- | -5- | --- | -7- | --- | -5- | 
------------- | ----- | --- | -5- | --- | -3- | --- | -5- | --- | -3- | 
------------- | ----- | --- | -5- | --- | -3- | --- | -5- | --- | -3- |  		   
AcordesyTabs.com © 2008 Acordes y Tablaturas para guitarra. Tabs and Chords for guitar. Aviso Legal - Contacto
El uso de este sitio está sujeto a la aceptación de los términos y condiciones (18 usuarios online)