tablaturas, partituras y acordes para guitarra
Busca por banda/artista:
 
y/o título de la canción:
A B C D E F G H I J K L M N O P Q R S T U V W X Y Z 0 1 2 3 4 5 6 7 8 9 / Top 100 tabs
Categorías
Usuarios
usuario:
Darse de alta
password:
Artistas más visitados
Publicidad
TOP acordes y tablaturas de Mark knopfler


What it is
de Mark knopfler
Puntúa este acorde/tab:      
(0.6/5)
Reportar este acorde/tab
  Añadir a tus favoritos
  Imprimir
Intro:

------------------------------------------------------------------------
--(9h10)------------------(9h10)----------------------------------------
---9h11--x-x--11p9---------9h11-x-11----9-(9h)11-9~---------------------
-------------------11----------------11---------------------------------
------------------------------------------------------------------------
------------------------------------------------------------------------

------------------------------------------------------------------------
--(9h10)------------------(9h10)----------------------------------------
---9h11--x-x--11p9---------9h11-x----9-----9--9~----------------------
-------------------11------------------11--9--9~----------------------
------------------------------------------------------------------------
------------------------------------------------------------------------

    F#m
The drinking dens are spilling out
        A
There's staggering in the square
        D
There's lads and lasses falling 'bout
     A         E
and a crackling in the air
    F#m
Down around the dungeon doors
     A
The shelters and the queues
     D
Everybody's looking for
     A              E
Somebody's arms to fall into


         F#m       Am D    E
And it's what it is

----------------------------------
----------------------------------
---------------------6-9/11-9~~---
----7-9b11rb9-7----7--------------
-11-------------------------------
----------------------------------

             F#m     Am D   E
it's what it is now

---------------------------------
----------------7----------------
-------9b(11)--x---6-------------
----------------------7/6-4--2~~-
---------------------------------
---------------------------------
   F#m
There's frost on the graves and the monuments
    A
But the taverns are warm in town
    D
People curse the government and
   A        E
Shovel hot food down
   F#m
Lights are out in city hall
   A
The castle and the keep

-------------------
-------------------
---11--9--7~-------
---11--9--7~-------
-------------------
-------------------
     D
The moon shines down upon it all
     A           E
The legless and asleep
          D
And it's cold on the tollgate
         A
With the wagons creeping through
D
Cold on the tollgate
    A                  E
God knows what I could do with you


F#m Am D E
And it's what it is

----------------------------------
----------------------------------
---------------------6-9/11-9~~---
--6-7-9b11rb9-7----7--------------
----------------------------------
----------------------------------
F#m Am D E
it's what it is now

-------------------------------------
-------------------------------------
--9b(11)rb9b(11)--9--6---------------
------------------------7--4---2~~---
-------------------------------------
-------------------------------------
      F#m
The garrison sleeps in the citadel
           A
With the ghosts and the ancient stones 
  D
High on the parapet
   A               E
A Scottish piper stands alone

-------------------------------------
-------10-----9----------------------
----/9-----9----11-9(h11)------------
----/9-----9--------------11~~~------
-------------------------------------
-------------------------------------
      F#m
High on the wind 
      A
The highland drums begin to roll

--------------------
----7---------------
-------6------------
-----------9--7~~---
--------------------
--------------------
      D
And something from the past just comes
      A           E
and stares into my soul

----------------------
----------------------
--------6--2--1/2~~-
-2h4/7----------------
----------------------
----------------------

And it's
  D 
Cold on the tollgate
             A
With the Caledonian blues

----------------------
---10-10-10-9-9-9--7~-
---9--9--9--9-9-9--7~-
----------------------
----------------------
----------------------
  D
Cold on the tollgate
   A                  E
God knows what I could do with you
----------------------
------------------9---
-----------9-9-11-----
-----/11~-------------
----------------------
----------------------

F#m Am D E
And that's what is is

----------------------------------
----------------------------------
---------------------6h9/11-9~~---
----7-9b11rb9-7----7--------------
----------------------------------
----------------------------------

F#m Am D E
It's what it is now

---------------------------------
----------------7----------------
-------9b(11)------6-------------
----------------------7/6-4--2~~-
---------------------------------
---------------------------------

F#m Am D E
It's what is is

------------------------------------
--------------------------10-7------
-----------------6-9-9/11------9~~--
----7-9b11rb9-7---------------------
------------------------------------
------------------------------------

F#m Am D E
It's what it is now

------------------------------------------------------
------------------------------------------------------
----9b(11)rb9b(11)--(11)rb9--6--------------1h2-------
--------------------------------9--7~---x-x-----2-2-4-
------------------------------------------------------
------------------------------------------------------

SOLO:
------------------------------------------------------------------------
-------------------------7--5-----------------------5h7p5---5/7-7-7-7~--
----------2------6-----6-------6--4-----------------------5-------------
--------2----4/7-----7---------------7~~--//----------------------------
----2h4-----------------------------------------------------------------
------------------------------------------------------------------------

------------------------------------------------------------------------
----5--3--5--3h5p3-5----------------7--9--7--------------7------------
-----------------------4~~-----9b(11)----------6--h9b(11)----9--6-------
-------------------------------------------------------------------7----
----------------------------------------------------------------------9~
------------------------------------------------------------------------

------------------------------------------------------------------------
------------------------------------------------------------------------
-------------6-------------------------------------------6-9/11~--------
------6-7-9--7--9--7--9--7--6----4~----6-7-9/119-7----7----------------
--9-9-----------------7-------------------------------------------------
------------------------------------------------------------------------

------------------------------------------------------------------------
----------7-------------------------------------------10-7--------------
--9b(11)----6----------------------------------6-9/11------9~-----------
--------------7--4--2------6-7-9/119-7----7--------------------------
------------------------------------------------------------------------
------------------------------------------------------------------------

------------------------------------------------------------------------
------10----------------------------------------------------------------
----x----11-------------------------------------------------------------
--x---------11--9--7--9/119p7h9---7h7~~~-----------------------------
------------------------------------------------------------------------
------------------------------------------------------------------------
 F#m
There's a chink of light

There's a burning wick
            A
There's a lantern in the tower
  D
Wee Willie Winkie with a candlestick
  A                         E
Still writing songs in the wee wee hours
 F#m
On Charlotte Street I take
            A
a walking stick from my hotel
 

  D
The ghost of Dirty Dick
  A                    E
Is still in search of Little Nell


F#m  D  E
And that's what it is
F#m  D  E
It's what it is now

It's what it is

(violin)


F#m Am D E
What it is, now, now, now...

(F#m Am D E)
------------------------------------------------------------------------
-------------------------2-5--------------------------------------------
----------------------4b-----4b-4----4---4------------------------------
---6-7-9/119-7~-----------------------5---5--7--7/9~~------------------
------------------------------------------------------------------------
------------------------------------------------------------------------

------------------------------------------------------------------------
-----------7--7--9-10-9~----b(10)-9-7-----------------------------------
----9b(11)----------------------------9-6-------------------------------
------------------------------------------7-6-7/9--7--9/11--9~~---------
------------------------------------------------------------------------
------------------------------------------------------------------------


------------------------------------------------------------------------
------------------------------------------------------------------------
------------------------6h9-9/11~~---------6----------------------------
---6-7-9/119-7~-----7------------------------9--7--9--9/11--9~~--------
------------------------------------------------------------------------
------------------------------------------------------------------------

------------------------------------------------------------------------
------------------------------------------------------------------------
----9-9--7--6--7~-------------------------------------------------------
----9-9--7--7--7~---7--6--6h9~--7-6-------------------------------------
------------------------------------9-6-9~------------------------------
------------------------------------------------------------------------

------------------------------------------------------------------------
------------------------------------------------------------------------
------------------------6h9-9/11~~------9b(11)-9b(11)rb9--6-------------
---6-7-9/119-7~-----7--------------------------------------7-----------
--------------------------------------------------------------9~~-------
------------------------------------------------------------------------

------------------------------------------------------------------------
------------------------10--7---------9brb--7---------------------------
------------6--9--9/11---------9~~------------9-6-----------------------
---6--7--9----------------------------------------7-6-/-7-/-9--9/11-9~--
------------------------------------------------------------------------
------------------------------------------------------------------------

-----------
---10-10---
---11-11---
-----------
-----------
-----------
                                                       
------------------------------------------------------------------------
--------------------------------7h10p7-10~-9~----7-9b(10)-9-7----7------
------11--11p9-11~--11p9-11~--x--------------------------------9---6~---
-9h11-------------------------------------------------------------------
------------------------------------------------------------------------
------------------------------------------------------------------------

------------------------------------------------------------------------
-------5------------------------7-10p7---7~---10b(12)-10-9~-------------
---4h6---(6)--2--4~----9b(11)--------9--------------------------------
------------------------------------------------------------------------
------------------------------------------------------------------------
------------------------------------------------------------------------

------------------------------------------------------------------------
---9b(10)--9--7--------2-----------------------------5~-----------------
-----------------6-2---2~----------------2-2----------6-4-------------
------------------------------2h4-x-x--2h4-2-2---4/6----6-4-------------
------------------------------------------------------------------------
------------------------------------------------------------------------ 		   
AcordesyTabs.com © 2008 Acordes y Tablaturas para guitarra. Tabs and Chords for guitar. Aviso Legal - Contacto
El uso de este sitio está sujeto a la aceptación de los términos y condiciones (30 usuarios online)