tablaturas, partituras y acordes para guitarra
Busca por banda/artista:
 
y/o título de la canción:
A B C D E F G H I J K L M N O P Q R S T U V W X Y Z 0 1 2 3 4 5 6 7 8 9 / Top 100 tabs
Categorías
Usuarios
usuario:
Darse de alta
password:
Artistas más visitados
Publicidad
TOP acordes y tablaturas de Mark knopfler


Estás en: Inicio > Letra M > Acordes y tablaturas de Mark knopfler > You don't know you're born
You don't know you're born
de Mark knopfler
Puntúa este acorde/tab:      
(1/5)
Reportar este acorde/tab
  Añadir a tus favoritos
  Imprimir
--------------- | ----------- | --------------- | ------------- |  | 
--------------- | ----------- | --------------- | ------------- |  | 
-2-2-0-2-2-0-2- | -2-2---2-2- | -2-2-0-2-2-0-2- | -5-5-4-4-2-2- |  | 
-0-0-0-0-0-0-0- | -0-0---0-0- | -0-0-0-0-0-0-0- | -0-0-0-0-0-0- |  | :
--------------- | ----------- | --------------- | ------------- |  | 
--------------- | ----------- | --------------- | ------------- |  | 

Dm
What do you know about the hammer and the spike 

What do you know about the farm 

You don't know 

You don't know what it's like 

Because you don't know 

You don't know you're born

What do you know about the hammer and the chisel 

You only know the kitchen and the warm 

You don't know about the night shift whistle 

Punching the clock to the horn 

Because you don't know 

You don't know you're born 


        Dm
You don't know 
                     C    
You don't know you're born 
G     
You don't know 
   Bb       C
You don't know you're born 

(2X)


Bb C  Bb  C  Bb C   
What do you know about the hammer and the nails 

Know about the thistles and the thorns 

What do you know about the road and the rails 

Your heart so weary and your hands all worn 

Your hands so weary and your heart all torn 
 

        Dm
You don't know 
                     C    
You don't know you're born 
G     
You don't know 
   Bb       C
You don't know you're born 

(2X)


Bb C  Bb  C  Bb C   

Solo:
------- | -------- | --- | -3- | --------- | --------- | ----- | ----- | ------- | --------------- | 
------- | -------- | --- | -3- | --------- | --------- | ----- | ----- | ------- | --------------- | 
-5-0-5- | -3------ | --- | -3- | --------- | --------- | ----- | ---0- | -5---0- | -5-3---3^2-0--- | 
------- | ----5^3- | -5- | -5- | -----2-3- | -0---3-2- | -3>5- | ----- | ------- | -------------3- | 
------- | -------- | --- | --- | ---3----- | ---1----- | ----- | ----- | ------- | --------------- | 
------- | -------- | --- | --- | -3------- | --------- | ----- | ----- | ------- | --------------- | 


----------- | --- | --------- | ------------ | --- | -3-----1- | -1----- | --------- | ----- | 
----------- | --- | --------- | ------------ | --- | -3^5---1- | -1^3--- | --------- | ----- | 
-------3--- | --- | --------- | ------------ | --- | --------- | ------- | -5-5-0-5- | -3--- | 
-3>5-----3- | -5- | -----2-3- | -0---3-2---- | --- | --------- | ------- | --------- | ----- | 
----------- | --- | ---3----- | ---1-------- | -3- | --------- | ------- | --------- | ----- | 
----------- | --- | -3------- | ------------ | --- | --------- | ------- | --------- | ----- | 

--------- | ----------- | --- | -3------- | -1--------- | ------- | ------- | --------- | 
--------- | ----------- | --- | -3^5---1- | -1^3-1----- | ------- | ------- | --------- | 
--------- | ----------- | --- | --------- | -------3-0- | ------- | -3----- | --------- | 
-----2-3- | -0---3-2--- | --- | --------- | ----------- | -3-5--- | ---3-5- | -----2-3- | 

---3----- | ---1------- | -3- | --------- | ----------- | ------- | ------- | ---3----- | 
-3------- | ----------- | --- | --------- | ----------- | ------- | ------- | -3------- | 

--------- | ----- | ---0--------- | --------- | --------- | --------- | --------- | --- | ----- | 
--------- | ----- | -5-6-5------- | --------- | --------- | --------- | --------- | --- | ----- | 
--------- | ----- | -------7-5>7- | -3------- | -----3--- | --------- | --------- | --- | ----- | 
-0---3-2- | ----- | ------------- | ---5-3>5- | -5-3---5- | -----2-3- | -0---3-2- | --- | ----- | 
---1----- | -3--- | ------------- | --------- | --------- | ---3----- | ---1----- | -3- | -3-5- | 
--------- | ----- | ------------- | --------- | --------- | -3------- | --------- | --- | ----- | 

---3----- | -1----------- | ------------- | ---
---3^5--- | -1^3-1------- | ------------- | ---
-5------- | -------3^2-0- | -----------3- | ---
--------- | ------------- | -3-5-----3--- | -5- fade out
--------- | ------------- | -------3----- | ---
--------- | ------------- | ------------- | --- 		   
AcordesyTabs.com © 2008 Acordes y Tablaturas para guitarra. Tabs and Chords for guitar. Aviso Legal - Contacto
El uso de este sitio está sujeto a la aceptación de los términos y condiciones (33 usuarios online)