tablaturas, partituras y acordes para guitarra
Busca por banda/artista:
 
y/o título de la canción:
A B C D E F G H I J K L M N O P Q R S T U V W X Y Z 0 1 2 3 4 5 6 7 8 9 / Top 100 tabs
Categorías
Usuarios
usuario:
Darse de alta
password:
Artistas más visitados
Publicidad
TOP acordes y tablaturas de Pavement


Estás en: Inicio > Letra P > Acordes y tablaturas de Pavement > In a mouth a desert
In a mouth a desert
de Pavement
Puntúa este acorde/tab:      
(0.6/5)
Reportar este acorde/tab
  Añadir a tus favoritos
  Imprimir
Introdução:
E----------------------------------------- | 
B-8-5-0-3-3-0---0-4-4-4-5-5-7--7-7-7-5-7-- | 
G-0-0-0-0-0-3---3-0-0-0-0-0-0--0-0-0-0-0-- | 
D-0-0-0-0-0-0---0-0-0-0-0-0-0--0-0-0-0-0-- | 
A----------------------------------------- | 
E----------------------------------------- | 

E------------------------------------------------------------------------ | 
B-8-5-0-3-3-0---0-4-4-4-5-5-7--7-7-7-5-7-5-7-7-7-5-7-7-7-5-7-7-7-5-7-7-7- | 
G-0-0-0-0-0-3---3-0-0-0-0-0-0--0-0-0-0-0-0-0-0-0-0-0-0-0-0-0-0-0-0-0-0-0- | 
D-0-0-0-0-0-0---0-0-0-0-0-0-0--0-0-0-0-0-0-0-0-0-0-0-0-0-0-0-0-0-0-0-0-0- | 
A------------------------------------------------------------------------ | 
E------------------------------------------------------------------------ | 



      C          Em                  G
      can you treat it like an oil well
                  Bm                        C
      when it's undergroud out of sight?
      C            Em                    G
      and if the sight is just a whore sign
               Bm                   C
      can it make enough sense to me?
           Em                        G
      pretend the table is a trust knot
                      Bm                        C
      we'll put our labels down faith is down
      C               Em                 G
      and watch the yards of twine unravel
             Bm
      and you'll never get it back
             C            Em
      it's what i want 

        (it's what i want) 
    Em        G           Bm
        it's what i want 

        (twinke it stand)
    Bm       C            Em
      it's what i want 

      (it's what i want)
    Em
       don't you know
                G
      I could make it dry

      make it dry
        Bm
      make it dry

      make it dry


     C              Em
      "i've been crowned, 
                    G
      the king of it 
                   Bm             C
      and it is all we have so wait 
                   Em                    G
      to hear my words and the diamond sharp 
                        Bm                      (inicia solo 1) C
        i could open it up if it's up and down"

      (  C Em G Bm )
      Solo1 2x
      E-------------10--------------10--------------10-12-10-8-10-- | 
      B-7-8-7-8-7-8-----7-8-7-8-7-8-----7-8-7-8-7-8---------------- | 
      G------------------------------------------------------------ | 

      ( C Em G Bm )


             C
      it's what i want 

        (it's what i want) 
     Em                    G
      I see a bag like a little box

        (following twice)
      Bm                          C
       don't you know that, it's what i want

      (it's what i want)
     Em                 G
      I see a bag and make it dry

      make it dry
        Bm
      make me dry

      make me dry


     C             Em
      "i've been downed, 
                    G
      the king of it 
                    Bm                  
      it's all we have, I've been downed 
     C              Em               G
      And I could wait to hear the word
                        Bm    (inicia solo 2) 
        see the diamond sharp today


      ( C Em G Bm )

      Solo2
      E-------------10--------------10--------------10-12-10-8-10-- | 
      B-7-8-7-8-7-8-----7-8-7-8-7-8-----7-8-7-8-7-8---------------- | 
      G------------------------------------------------------------ | 

      E-------------10--------------10-------------------------------------- | 
      B-7-8-7-8-7-8-----7-8-7-8-7-8-----7-8-7-8-7-8-7-8-7-8-7-8-7-8-7-8-7-8- | 
      G--------------------------------------------------------------------- | 

      E------------------------------------------------------- | 
      B-10-10-10-8-7-8-7-8-7----7-8-7-10-10-10-10-8-7-8-7-5-3- | 
      G------------------------------------------------------- | 

      FIM->>>>
      E-------------------------------------------------------------------------- | 
      B-7-8-7-10-10-10-10-8--7-10-10-10-10-8--7-10-10-10-10-8--7-10-10-10-10-8-7- | 
      G-------------------------------------------------------------------------- | 

Acordes:
      C - x32010
      Em- 022000
      G - 320033
      Bm- x24432 		   
AcordesyTabs.com © 2008 Acordes y Tablaturas para guitarra. Tabs and Chords for guitar. Aviso Legal - Contacto
El uso de este sitio está sujeto a la aceptación de los términos y condiciones (14 usuarios online)