tablaturas, partituras y acordes para guitarra
Busca por banda/artista:
 
y/o título de la canción:
A B C D E F G H I J K L M N O P Q R S T U V W X Y Z 0 1 2 3 4 5 6 7 8 9 / Top 100 tabs
Categorías
Usuarios
usuario:
Darse de alta
password:
Artistas más visitados
Publicidad
TOP acordes y tablaturas de Pavement


Estás en: Inicio > Letra P > Acordes y tablaturas de Pavement > Motion Suggests
Motion Suggests
de Pavement
Puntúa este acorde/tab:      
(0.5/5)
Reportar este acorde/tab
  Añadir a tus favoritos
  Imprimir
Bm                 G7
I traced my family lines,
                  D                            E
It ends up with a window passing rainy days forgetting shes away
G
heres the straight and narrow, brought my wheel barrow
        D
and its filled with the lies and the dirt and the hurt


      E             G             D
but I wont need someone to let me be,
  E             G             D
I wont need someone to let me be


Bm                        G7
I've bought(?) the cotton threads,
                              D                           E
and a voice could soothe you, captivate the senses like a ginger ale rain
G
those they got the narrow, curse the tainted farrows,
       D
take off, respect fun, you might learn how it runs


      E             G             D
but I wont need someone to let me be,
      E             G             D
no, I wont need someone to let me be,
      E             G             D
no, I wont need someone to let me be,
      E             G                        D
no, I wont need someone to let me go, let me breathe.

Solo:

 e | ---------2----------------------------------- | 
 B | --5-3------3-----------------------7-5------- | 
 G | ------------------------------5--------5----- | 
 D | ------4------4--3-2-0-----------4--------4--- | 
 A | ----------------------0-0h2------------------ | 
 E | --------------------------------------------- | 

 e | ----------------------------------------------------- | 
 B | ----7-5-7/8/9--7-8-9--10-----10------10----12-10----- | 
 G | --5----------------------10-------------10-------10-- | 
 D | --------------------------------9--9----------------- | 
 A | ----------------------------------------------------- | 
 E | ----------------------------------------------------- | 

 e | ---------------------------------------------- | 
 B | ---------------------------------------------- | 
 G | --9--------9---------9-7-----9-7-------------- | 
 D | -----10------10----9-----6-9-----6--5--3-2-0-- | 
 A | ---------9------9----------------------------- | 
 E | ---------------------------------------------- | 

 e | --3-2--0---2---0----------0------- | 
 B | ---------0---0----0-0-0h3----0---- | 
 G | -------------------------------2-- | 
 D | ---------------------------------- | 
 A | ---------------------------------- | 
 E | ---------------------------------- | 


Acordes:
      Bm- x24432
      G7- 353433
      G - 320033
      D - xx0232
      E - 022100 		   
AcordesyTabs.com © 2008 Acordes y Tablaturas para guitarra. Tabs and Chords for guitar. Aviso Legal - Contacto
El uso de este sitio está sujeto a la aceptación de los términos y condiciones (36 usuarios online)